  0
SECTION
  2
HEADER
  9
$ACADVER
  1
AC1014
  9
$ACADMAINTVER
 70
     0
  9
$DWGCODEPAGE
  3
DOS932
  9
$INSBASE
 10
0.0
 20
0.0
 30
0.0
  9
$EXTMIN
 10
-91.849998
 20
-23.1
 30
0.0
  9
$EXTMAX
 10
430.650002
 20
190.278
 30
0.0
  9
$LIMMIN
 10
0.0
 20
0.0
  9
$LIMMAX
 10
297.0
 20
210.0
  9
$ORTHOMODE
 70
     0
  9
$REGENMODE
 70
     1
  9
$FILLMODE
 70
     1
  9
$QTEXTMODE
 70
     0
  9
$MIRRTEXT
 70
     1
  9
$DRAGMODE
 70
     2
  9
$LTSCALE
 40
1.0
  9
$OSMODE
 70
     0
  9
$ATTMODE
 70
     1
  9
$TEXTSIZE
 40
0.2
  9
$TRACEWID
 40
0.05
  9
$TEXTSTYLE
  7
STANDARD
  9
$CLAYER
  8
LAY-2
  9
$CELTYPE
  6
CONTINUOUS
  9
$CECOLOR
 62
   256
  9
$CELTSCALE
 40
1.0
  9
$DELOBJ
 70
     1
  9
$DISPSILH
 70
     0
  9
$DIMSCALE
 40
1.0
  9
$DIMASZ
 40
0.18
  9
$DIMEXO
 40
0.0625
  9
$DIMDLI
 40
0.38
  9
$DIMRND
 40
0.0
  9
$DIMDLE
 40
0.0
  9
$DIMEXE
 40
0.18
  9
$DIMTP
 40
0.0
  9
$DIMTM
 40
0.0
  9
$DIMTXT
 40
0.18
  9
$DIMCEN
 40
0.09
  9
$DIMTSZ
 40
0.0
  9
$DIMTOL
 70
     0
  9
$DIMLIM
 70
     0
  9
$DIMTIH
 70
     1
  9
$DIMTOH
 70
     1
  9
$DIMSE1
 70
     0
  9
$DIMSE2
 70
     0
  9
$DIMTAD
 70
     0
  9
$DIMZIN
 70
     0
  9
$DIMBLK
  1

  9
$DIMASO
 70
     1
  9
$DIMSHO
 70
     1
  9
$DIMPOST
  1

  9
$DIMAPOST
  1

  9
$DIMALT
 70
     0
  9
$DIMALTD
 70
     2
  9
$DIMALTF
 40
25.4
  9
$DIMLFAC
 40
1.0
  9
$DIMTOFL
 70
     0
  9
$DIMTVP
 40
0.0
  9
$DIMTIX
 70
     0
  9
$DIMSOXD
 70
     0
  9
$DIMSAH
 70
     0
  9
$DIMBLK1
  1

  9
$DIMBLK2
  1

  9
$DIMSTYLE
  2
STANDARD
  9
$DIMCLRD
 70
     0
  9
$DIMCLRE
 70
     0
  9
$DIMCLRT
 70
     0
  9
$DIMTFAC
 40
1.0
  9
$DIMGAP
 40
0.09
  9
$DIMJUST
 70
     0
  9
$DIMSD1
 70
     0
  9
$DIMSD2
 70
     0
  9
$DIMTOLJ
 70
     1
  9
$DIMTZIN
 70
     0
  9
$DIMALTZ
 70
     0
  9
$DIMALTTZ
 70
     0
  9
$DIMFIT
 70
     3
  9
$DIMUPT
 70
     0
  9
$DIMUNIT
 70
     2
  9
$DIMDEC
 70
     4
  9
$DIMTDEC
 70
     4
  9
$DIMALTU
 70
     2
  9
$DIMALTTD
 70
     2
  9
$DIMTXSTY
  7
STANDARD
  9
$DIMAUNIT
 70
     0
  9
$LUNITS
 70
     2
  9
$LUPREC
 70
     4
  9
$SKETCHINC
 40
0.1
  9
$FILLETRAD
 40
0.0
  9
$AUNITS
 70
     0
  9
$AUPREC
 70
     0
  9
$MENU
  1
acad
  9
$ELEVATION
 40
0.0
  9
$PELEVATION
 40
0.0
  9
$THICKNESS
 40
0.0
  9
$LIMCHECK
 70
     0
  9
$BLIPMODE
 70
     1
  9
$CHAMFERA
 40
0.0
  9
$CHAMFERB
 40
0.0
  9
$CHAMFERC
 40
0.0
  9
$CHAMFERD
 40
0.0
  9
$SKPOLY
 70
     0
  9
$TDCREATE
 40
2453456.042860660
  9
$TDUPDATE
 40
2453456.042860660
  9
$TDINDWG
 40
0.0000000000
  9
$TDUSRTIMER
 40
0.0000000000
  9
$USRTIMER
 70
     1
  9
$ANGBASE
 50
0.0
  9
$ANGDIR
 70
     0
  9
$PDMODE
 70
     0
  9
$PDSIZE
 40
0.0
  9
$PLINEWID
 40
0.0
  9
$COORDS
 70
     1
  9
$SPLFRAME
 70
     0
  9
$SPLINETYPE
 70
     6
  9
$SPLINESEGS
 70
     8
  9
$ATTDIA
 70
     0
  9
$ATTREQ
 70
     1
  9
$HANDLING
 70
     1
  9
$HANDSEED
  5
31D
  9
$SURFTAB1
 70
     6
  9
$SURFTAB2
 70
     6
  9
$SURFTYPE
 70
     6
  9
$SURFU
 70
     6
  9
$SURFV
 70
     6
  9
$UCSNAME
  2

  9
$UCSORG
 10
0.0
 20
0.0
 30
0.0
  9
$UCSXDIR
 10
1.0
 20
0.0
 30
0.0
  9
$UCSYDIR
 10
0.0
 20
1.0
 30
0.0
  9
$PUCSNAME
  2

  9
$PUCSORG
 10
0.0
 20
0.0
 30
0.0
  9
$PUCSXDIR
 10
1.0
 20
0.0
 30
0.0
  9
$PUCSYDIR
 10
0.0
 20
1.0
 30
0.0
  9
$USERI1
 70
     0
  9
$USERI2
 70
     0
  9
$USERI3
 70
     0
  9
$USERI4
 70
     0
  9
$USERI5
 70
     0
  9
$USERR1
 40
0.0
  9
$USERR2
 40
0.0
  9
$USERR3
 40
0.0
  9
$USERR4
 40
0.0
  9
$USERR5
 40
0.0
  9
$WORLDVIEW
 70
     1
  9
$SHADEDGE
 70
     3
  9
$SHADEDIF
 70
    70
  9
$TILEMODE
 70
     1
  9
$MAXACTVP
 70
    16
  9
$PINSBASE
 10
0.0
 20
0.0
 30
0.0
  9
$PLIMCHECK
 70
     0
  9
$PEXTMIN
 10
1.000000E+20
 20
1.000000E+20
 30
1.000000E+20
  9
$PEXTMAX
 10
-1.000000E+20
 20
-1.000000E+20
 30
-1.000000E+20
  9
$PLIMMIN
 10
0.0
 20
0.0
  9
$PLIMMAX
 10
12.0
 20
9.0
  9
$UNITMODE
 70
     0
  9
$VISRETAIN
 70
     0
  9
$PLINEGEN
 70
     1
  9
$PSLTSCALE
 70
     0
  9
$TREEDEPTH
 70
  3020
  9
$PICKSTYLE
 70
     1
  9
$CMLSTYLE
  2
Standard
  9
$CMLJUST
 70
     0
  9
$CMLSCALE
 40
1.0
  9
$PROXYGRAPHICS
 70
     0
  9
$MEASUREMENT
 70
     0
  0
ENDSEC
  0
SECTION
  2
CLASSES
  0
CLASS
  1
LWPOLYLINE
  2
AcDbPolyline
  3
"AutoCAD"
 90
        0
280
     0
281
     1
  0
CLASS
  1
IMAGE
  2
AcDbRasterImage
  3
ISM
 90
      127
280
     0
281
     1
  0
CLASS
  1
OLE2FRAME
  2
AcDbOle2Frame
  3
""
 90
        0
280
     0
281
     1
  0
CLASS
  1
HATCH
  2
AcDbHatch
  3
"ACAD_SEDONA"
 90
        0
280
     0
281
     1
  0
CLASS
  1
DICTIONARYVAR
  2
AcDbDictionaryVar
  3
"AutoCAD"
 90
        0
280
     0
281
     0
  0
CLASS
  1
RASTERVARIABLES
  2
AcDbRasterVariables
  3
ISM
 90
        0
280
     0
281
     0
  0
CLASS
  1
IMAGEDEF
  2
AcDbRasterImageDef
  3
ISM
 90
        0
280
     0
281
     0
  0
CLASS
  1
IMAGEDEF_REACTOR
  2
AcDbRasterImageDefReactor
  3
ISM
 90
        1
280
     0
281
     0
  0
CLASS
  1
IDBUFFER
  2
AcDbIdBuffer
  3
"Acad"
 90
        0
280
     0
281
     0
  0
CLASS
  1
SPATIAL_FILTER
  2
AcDbSpatialFilter
  3
"Acad"
 90
        0
280
     0
281
     0
  0
CLASS
  1
XRECORD
  2
AcDbXrecord
  3
"<Built In>"
 90
        0
280
     0
281
     0
  0
CLASS
  1
SORTENTSTABLE
  2
AcDbSortentsTable
  3
"AutoCAD"
 90
        0
280
     0
281
     0
  0
CLASS
  1
LAYER_INDEX
  2
AcDbLayerIndex
  3
"Acad"
 90
        0
280
     0
281
     0
  0
CLASS
  1
SPATIAL_INDEX
  2
AcDbSpatialIndex
  3
"Acad"
 90
        0
280
     0
281
     0
  0
CLASS
  1
OBJECT_PTR
  2
CAseDLPNTableRecord
  3
"ASE-LPNTableRecord"
 90
        1
280
     0
281
     0
  0
CLASS
  1
LAYOUT
  2
AcDbLayout
  3
"AutoCAD 2000"
 90
        1
280
     0
281
     0
  0
CLASS
  1
PLOTSETTINGS
  2
AcDbPlotSettings
  3
"AutoCAD 2000"
 90
        1
280
     0
281
     0
  0
CLASS
  1
ACDBDICTIONARYWDFLT
  2
AcDbDictionaryWithDefault
  3
"AutoCAD 2000"
 90
        1
280
     0
281
     0
  0
CLASS
  1
ACDBPLACEHOLDER
  2
AcDbPlaceHolder
  3
"AutoCAD 2000"
 90
        1
280
     0
281
     0
  0
CLASS
  1
VBA_PROJECT
  2
AcDbVbaProject
  3
"acadvba"
 90
        1
280
     0
281
     0
  0
CLASS
  1
WIPEOUT
  2
AcDbWipeout
  3
WipeOut|AutoCAD Express Tool|expresstools@autodesk.com
 90
      127
280
     0
281
     1
  0
CLASS
  1
WIPEOUTVARIABLES
  2
AcDbWipeoutVariables
  3
WipeOut|AutoCAD Express Tool|expresstools@autodesk.com
 90
        0
280
     0
281
     0
  0
CLASS
  1
RTEXT
  2
RText
  3
RText|AutoCAD Express Tool|expresstools@autodesk.com
 90
        0
280
     0
281
     1
  0
CLASS
  1
ARCALIGNEDTEXT
  2
AcDbArcAlignedText
  3
ATEXT|AutoCAD Express Tool|expresstools@autodesk.com
 90
        0
280
     0
281
     1
  0
ENDSEC
  0
SECTION
  2
TABLES
  0
TABLE
  2
VPORT
  5
7
100
AcDbSymbolTable
 70
     1
  0
VPORT
  5
15
100
AcDbSymbolTableRecord
100
AcDbViewportTableRecord
  2
*ACTIVE
 70
     0
 10
0.0
 20
0.0
 11
1.0
 21
1.0
 12
169.400002
 22
83.589
 13
0.0
 23
0.0
 14
1.0
 24
1.0
 15
0.0
 25
0.0
 16
0.0
 26
0.0
 36
1.0
 17
0.0
 27
0.0
 37
0.0
 40
213.378
 41
1.722533
 42
50.0
 43
0.0
 44
0.0
 50
0.0
 51
0.0
 71
     0
 72
   100
 73
     1
 74
     1
 75
     0
 76
     0
 77
     0
 78
     0
  0
ENDTAB
  0
TABLE
  2
LTYPE
  5
4
100
AcDbSymbolTable
 70
     9
  0
LTYPE
  5
11
100
AcDbSymbolTableRecord
100
AcDbLinetypeTableRecord
  2
BYBLOCK
 70
    64
  3

 72
    65
 73
     0
 40
0.0
  0
LTYPE
  5
12
100
AcDbSymbolTableRecord
100
AcDbLinetypeTableRecord
  2
BYLAYER
 70
    64
  3

 72
    65
 73
     0
 40
0.0
  0
LTYPE
  5
13
100
AcDbSymbolTableRecord
100
AcDbLinetypeTableRecord
  2
CONTINUOUS
 70
    64
  3
実線
 72
    65
 73
     0
 40
0.0
  0
LTYPE
  5
1D
100
AcDbSymbolTableRecord
100
AcDbLinetypeTableRecord
  2
EXLTYPE1
 70
    64
  3
破線
 72
    65
 73
     2
 40
4.0
 49
3.0
 74
     0
 49
-1.0
 74
     0
  0
LTYPE
  5
1E
100
AcDbSymbolTableRecord
100
AcDbLinetypeTableRecord
  2
EXLTYPE2
 70
    64
  3
点線
 72
    65
 73
     2
 40
2.0
 49
1.0
 74
     0
 49
-1.0
 74
     0
  0
LTYPE
  5
1F
100
AcDbSymbolTableRecord
100
AcDbLinetypeTableRecord
  2
EXLTYPE3
 70
    64
  3
一点鎖線
 72
    65
 73
     4
 40
33.0
 49
30.0
 74
     0
 49
-1.0
 74
     0
 49
1.0
 74
     0
 49
-1.0
 74
     0
  0
LTYPE
  5
20
100
AcDbSymbolTableRecord
100
AcDbLinetypeTableRecord
  2
EXLTYPE4
 70
    64
  3
二点鎖線
 72
    65
 73
     6
 40
35.0
 49
30.0
 74
     0
 49
-1.0
 74
     0
 49
1.0
 74
     0
 49
-1.0
 74
     0
 49
1.0
 74
     0
 49
-1.0
 74
     0
  0
LTYPE
  5
21
100
AcDbSymbolTableRecord
100
AcDbLinetypeTableRecord
  2
EXLTYPE5
 70
    64
  3
三点鎖線
 72
    65
 73
     8
 40
37.0
 49
30.0
 74
     0
 49
-1.0
 74
     0
 49
1.0
 74
     0
 49
-1.0
 74
     0
 49
1.0
 74
     0
 49
-1.0
 74
     0
 49
1.0
 74
     0
 49
-1.0
 74
     0
  0
LTYPE
  5
22
100
AcDbSymbolTableRecord
100
AcDbLinetypeTableRecord
  2
EXLTYPE6
 70
    64
  3
四点鎖線
 72
    65
 73
    10
 40
39.0
 49
30.0
 74
     0
 49
-1.0
 74
     0
 49
1.0
 74
     0
 49
-1.0
 74
     0
 49
1.0
 74
     0
 49
-1.0
 74
     0
 49
1.0
 74
     0
 49
-1.0
 74
     0
 49
1.0
 74
     0
 49
-1.0
 74
     0
  0
ENDTAB
  0
TABLE
  2
LAYER
  5
2
100
AcDbSymbolTable
 70
     3
  0
LAYER
  5
14
100
AcDbSymbolTableRecord
100
AcDbLayerTableRecord
  2
0
 70
     0
 62
     7
  6
CONTINUOUS
  0
LAYER
  5
25
100
AcDbSymbolTableRecord
100
AcDbLayerTableRecord
  2
LAY-1
 70
    64
 62
     7
  6
CONTINUOUS
  0
LAYER
  5
26
100
AcDbSymbolTableRecord
100
AcDbLayerTableRecord
  2
LAY-2
 70
    64
 62
     7
  6
CONTINUOUS
  0
ENDTAB
  0
TABLE
  2
STYLE
  5
3
100
AcDbSymbolTable
 70
     4
  0
STYLE
  5
17
100
AcDbSymbolTableRecord
100
AcDbTextStyleTableRecord
  2
STANDARD
 70
     0
 40
0.0
 41
1.0
 50
0.0
 71
     0
 42
0.0
  3
monotxt
  4
extfont
  0
STYLE
  5
23
100
AcDbSymbolTableRecord
100
AcDbTextStyleTableRecord
  2
EXCADSTD
 70
    64
 40
0.0
 41
1.0
 50
0.0
 71
     0
 42
0.2
  3
monotxt
  4
extfont
  0
STYLE
  5
24
100
AcDbSymbolTableRecord
100
AcDbTextStyleTableRecord
  2
EXCADVERT
 70
    68
 40
0.0
 41
1.0
 50
0.0
 71
     0
 42
0.286885
  3
monotxt
  4
extfont
  0
STYLE
  5
31B
100
AcDbSymbolTableRecord
100
AcDbTextStyleTableRecord
  2
EXCADTTF1
 70
    64
 40
0.0
 41
1.0
 50
0.0
 71
     0
 42
0.2
  3
MS Gothic.ttf
  4

1001
ACAD
1000
MS Gothic
1071
    32817
  0
ENDTAB
  0
TABLE
  2
VIEW
  5
5
100
AcDbSymbolTable
 70
     0
  0
ENDTAB
  0
TABLE
  2
UCS
  5
6
100
AcDbSymbolTable
 70
     0
  0
ENDTAB
  0
TABLE
  2
APPID
  5
8
100
AcDbSymbolTable
 70
     1
  0
APPID
  5
16
100
AcDbSymbolTableRecord
100
AcDbRegAppTableRecord
  2
ACAD
 70
     0
  0
ENDTAB
  0
TABLE
  2
DIMSTYLE
  5
9
100
AcDbSymbolTable
 70
     1
  0
DIMSTYLE
105
18
100
AcDbSymbolTableRecord
100
AcDbDimStyleTableRecord
  2
STANDARD
 70
     0
  3

  4

  5

  6

  7

 40
1.0
 41
0.18
 42
0.0625
 43
0.38
 44
0.18
 45
0.0
 46
0.0
 47
0.0
 48
0.0
 71
     0
 72
     0
 73
     1
 74
     1
 75
     0
 76
     0
 77
     0
 78
     0
140
0.18
141
0.09
142
0.0
143
25.4
144
1.0
145
0.0
146
1.0
147
0.09
170
     0
171
     2
172
     0
173
     0
174
     0
175
     0
176
     0
177
     0
178
     0
270
     2
271
     4
272
     4
273
     2
274
     2
275
     0
280
     0
281
     0
282
     0
283
     1
284
     0
285
     0
286
     0
287
     0
288
     0
340
17
  0
ENDTAB
  0
TABLE
  2
BLOCK_RECORD
  5
1
100
AcDbSymbolTable
 70
    14
  0
BLOCK_RECORD
  5
A
100
AcDbSymbolTableRecord
100
AcDbBlockTableRecord
  2
*MODEL_SPACE
  0
BLOCK_RECORD
  5
B
100
AcDbSymbolTableRecord
100
AcDbBlockTableRecord
  2
*PAPER_SPACE
  0
BLOCK_RECORD
  5
27
100
AcDbSymbolTableRecord
100
AcDbBlockTableRecord
  2
_EX_NORM
  0
BLOCK_RECORD
  5
28
100
AcDbSymbolTableRecord
100
AcDbBlockTableRecord
  2
_EX_BNORM
  0
BLOCK_RECORD
  5
29
100
AcDbSymbolTableRecord
100
AcDbBlockTableRecord
  2
_EX_BCIR
  0
BLOCK_RECORD
  5
2A
100
AcDbSymbolTableRecord
100
AcDbBlockTableRecord
  2
_EX_RCIVIL
  0
BLOCK_RECORD
  5
2B
100
AcDbSymbolTableRecord
100
AcDbBlockTableRecord
  2
_EX_SLANT
  0
BLOCK_RECORD
  5
2C
100
AcDbSymbolTableRecord
100
AcDbBlockTableRecord
  2
_EX_NONE
  0
BLOCK_RECORD
  5
2D
100
AcDbSymbolTableRecord
100
AcDbBlockTableRecord
  2
_EX_CIVIL
  0
BLOCK_RECORD
  5
2E
100
AcDbSymbolTableRecord
100
AcDbBlockTableRecord
  2
_EX_WCIR
  0
BLOCK_RECORD
  5
2F
100
AcDbSymbolTableRecord
100
AcDbBlockTableRecord
  2
_EX_WCIR2
  0
BLOCK_RECORD
  5
30
100
AcDbSymbolTableRecord
100
AcDbBlockTableRecord
  2
_EX_WNORM
  0
BLOCK_RECORD
  5
31
100
AcDbSymbolTableRecord
100
AcDbBlockTableRecord
  2
_EX_NNORM
  0
BLOCK_RECORD
  5
32
100
AcDbSymbolTableRecord
100
AcDbBlockTableRecord
  2
_EX_BBOX
  0
BLOCK_RECORD
  5
33
100
AcDbSymbolTableRecord
100
AcDbBlockTableRecord
  2
_EX_WBOX
  0
BLOCK_RECORD
  5
34
100
AcDbSymbolTableRecord
100
AcDbBlockTableRecord
  2
_EX_INTEGRAL
  0
ENDTAB
  0
ENDSEC
  0
SECTION
  2
BLOCKS
  0
BLOCK
  5
D
100
AcDbEntity
  8
0
100
AcDbBlockBegin
  2
*MODEL_SPACE
 70
     0
 10
0.0
 20
0.0
 30
0.0
  3
*MODEL_SPACE
  1

  0
ENDBLK
  5
E
100
AcDbEntity
  8
0
100
AcDbBlockEnd
  0
BLOCK
  5
F
100
AcDbEntity
 67
     1
  8
0
100
AcDbBlockBegin
  2
*PAPER_SPACE
 70
     0
 10
0.0
 20
0.0
 30
0.0
  3
*PAPER_SPACE
  1

  0
ENDBLK
  5
10
100
AcDbEntity
 67
     1
  8
0
100
AcDbBlockEnd
  0
BLOCK
  5
35
100
AcDbEntity
  8
0
100
AcDbBlockBegin
  2
_EX_NORM
 70
     0
 10
0.0
 20
0.0
 30
0.0
  3
_EX_NORM
  1

  0
LINE
  5
36
100
AcDbEntity
  8
0
  6
CONTINUOUS
 62
     0
100
AcDbLine
 10
0.0
 20
0.0
 30
0.0
 11
-1.0
 21
0.0
 31
0.0
  0
LINE
  5
37
100
AcDbEntity
  8
0
  6
CONTINUOUS
 62
     0
100
AcDbLine
 10
0.0
 20
0.0
 30
0.0
 11
-1.0
 21
0.166667
 31
0.0
  0
LINE
  5
38
100
AcDbEntity
  8
0
  6
CONTINUOUS
 62
     0
100
AcDbLine
 10
0.0
 20
0.0
 30
0.0
 11
-1.0
 21
-0.166667
 31
0.0
  0
ENDBLK
  5
39
100
AcDbEntity
  8
0
100
AcDbBlockEnd
  0
BLOCK
  5
3A
100
AcDbEntity
  8
0
100
AcDbBlockBegin
  2
_EX_BNORM
 70
     0
 10
0.0
 20
0.0
 30
0.0
  3
_EX_BNORM
  1

  0
LINE
  5
3B
100
AcDbEntity
  8
0
  6
CONTINUOUS
 62
     0
100
AcDbLine
 10
0.0
 20
0.0
 30
0.0
 11
-1.0
 21
0.0
 31
0.0
  0
LINE
  5
3C
100
AcDbEntity
  8
0
  6
CONTINUOUS
 62
     0
100
AcDbLine
 10
0.0
 20
0.0
 30
0.0
 11
-1.0
 21
0.166667
 31
0.0
  0
LINE
  5
3D
100
AcDbEntity
  8
0
  6
CONTINUOUS
 62
     0
100
AcDbLine
 10
0.0
 20
0.0
 30
0.0
 11
-1.0
 21
-0.166667
 31
0.0
  0
LINE
  5
3E
100
AcDbEntity
  8
0
  6
CONTINUOUS
 62
     0
100
AcDbLine
 10
0.0
 20
0.0
 30
0.0
 11
-1.0
 21
0.083333
 31
0.0
  0
LINE
  5
3F
100
AcDbEntity
  8
0
  6
CONTINUOUS
 62
     0
100
AcDbLine
 10
0.0
 20
0.0
 30
0.0
 11
-1.0
 21
-0.083333
 31
0.0
  0
LINE
  5
40
100
AcDbEntity
  8
0
  6
CONTINUOUS
 62
     0
100
AcDbLine
 10
-1.0
 20
0.166667
 30
0.0
 11
-1.0
 21
-0.166667
 31
0.0
  0
ENDBLK
  5
41
100
AcDbEntity
  8
0
100
AcDbBlockEnd
  0
BLOCK
  5
42
100
AcDbEntity
  8
0
100
AcDbBlockBegin
  2
_EX_BCIR
 70
     0
 10
0.0
 20
0.0
 30
0.0
  3
_EX_BCIR
  1

  0
LINE
  5
43
100
AcDbEntity
  8
0
  6
CONTINUOUS
 62
     0
100
AcDbLine
 10
0.0
 20
0.0
 30
0.0
 11
-1.0
 21
0.0
 31
0.0
  0
CIRCLE
  5
44
100
AcDbEntity
  8
0
  6
CONTINUOUS
 62
     0
100
AcDbCircle
 10
0.0
 20
0.0
 30
0.0
 40
0.5
  0
CIRCLE
  5
45
100
AcDbEntity
  8
0
  6
CONTINUOUS
 62
     0
100
AcDbCircle
 10
0.0
 20
0.0
 30
0.0
 40
0.25
  0
ENDBLK
  5
46
100
AcDbEntity
  8
0
100
AcDbBlockEnd
  0
BLOCK
  5
47
100
AcDbEntity
  8
0
100
AcDbBlockBegin
  2
_EX_RCIVIL
 70
     0
 10
0.0
 20
0.0
 30
0.0
  3
_EX_RCIVIL
  1

  0
LINE
  5
48
100
AcDbEntity
  8
0
  6
CONTINUOUS
 62
     0
100
AcDbLine
 10
0.0
 20
0.0
 30
0.0
 11
-1.0
 21
0.0
 31
0.0
  0
LINE
  5
49
100
AcDbEntity
  8
0
  6
CONTINUOUS
 62
     0
100
AcDbLine
 10
-1.0
 20
-0.25
 30
0.0
 11
0.0
 21
-0.25
 31
0.0
  0
LINE
  5
4A
100
AcDbEntity
  8
0
  6
CONTINUOUS
 62
     0
100
AcDbLine
 10
-1.0
 20
-0.125
 30
0.0
 11
0.0
 21
-0.125
 31
0.0
  0
ENDBLK
  5
4B
100
AcDbEntity
  8
0
100
AcDbBlockEnd
  0
BLOCK
  5
4C
100
AcDbEntity
  8
0
100
AcDbBlockBegin
  2
_EX_SLANT
 70
     0
 10
0.0
 20
0.0
 30
0.0
  3
_EX_SLANT
  1

  0
LINE
  5
4D
100
AcDbEntity
  8
0
  6
CONTINUOUS
 62
     0
100
AcDbLine
 10
0.0
 20
0.0
 30
0.0
 11
-1.0
 21
0.0
 31
0.0
  0
LINE
  5
4E
100
AcDbEntity
  8
0
  6
CONTINUOUS
 62
     0
100
AcDbLine
 10
0.707107
 20
0.707107
 30
0.0
 11
-0.707107
 21
-0.707107
 31
0.0
  0
ENDBLK
  5
4F
100
AcDbEntity
  8
0
100
AcDbBlockEnd
  0
BLOCK
  5
50
100
AcDbEntity
  8
0
100
AcDbBlockBegin
  2
_EX_NONE
 70
     0
 10
0.0
 20
0.0
 30
0.0
  3
_EX_NONE
  1

  0
LINE
  5
51
100
AcDbEntity
  8
0
  6
CONTINUOUS
 62
     0
100
AcDbLine
 10
0.0
 20
0.0
 30
0.0
 11
-1.0
 21
0.0
 31
0.0
  0
ENDBLK
  5
52
100
AcDbEntity
  8
0
100
AcDbBlockEnd
  0
BLOCK
  5
53
100
AcDbEntity
  8
0
100
AcDbBlockBegin
  2
_EX_CIVIL
 70
     0
 10
0.0
 20
0.0
 30
0.0
  3
_EX_CIVIL
  1

  0
LINE
  5
54
100
AcDbEntity
  8
0
  6
CONTINUOUS
 62
     0
100
AcDbLine
 10
0.0
 20
0.0
 30
0.0
 11
-1.0
 21
0.0
 31
0.0
  0
LINE
  5
55
100
AcDbEntity
  8
0
  6
CONTINUOUS
 62
     0
100
AcDbLine
 10
-1.0
 20
0.25
 30
0.0
 11
0.0
 21
0.25
 31
0.0
  0
LINE
  5
56
100
AcDbEntity
  8
0
  6
CONTINUOUS
 62
     0
100
AcDbLine
 10
-1.0
 20
0.125
 30
0.0
 11
0.0
 21
0.125
 31
0.0
  0
ENDBLK
  5
57
100
AcDbEntity
  8
0
100
AcDbBlockEnd
  0
BLOCK
  5
58
100
AcDbEntity
  8
0
100
AcDbBlockBegin
  2
_EX_WCIR
 70
     0
 10
0.0
 20
0.0
 30
0.0
  3
_EX_WCIR
  1

  0
LINE
  5
59
100
AcDbEntity
  8
0
  6
CONTINUOUS
 62
     0
100
AcDbLine
 10
0.0
 20
0.0
 30
0.0
 11
-1.0
 21
0.0
 31
0.0
  0
CIRCLE
  5
5A
100
AcDbEntity
  8
0
  6
CONTINUOUS
 62
     0
100
AcDbCircle
 10
0.0
 20
0.0
 30
0.0
 40
0.5
  0
ENDBLK
  5
5B
100
AcDbEntity
  8
0
100
AcDbBlockEnd
  0
BLOCK
  5
5C
100
AcDbEntity
  8
0
100
AcDbBlockBegin
  2
_EX_WCIR2
 70
     0
 10
0.0
 20
0.0
 30
0.0
  3
_EX_WCIR2
  1

  0
LINE
  5
5D
100
AcDbEntity
  8
0
  6
CONTINUOUS
 62
     0
100
AcDbLine
 10
-0.5
 20
0.0
 30
0.0
 11
-1.0
 21
0.0
 31
0.0
  0
CIRCLE
  5
5E
100
AcDbEntity
  8
0
  6
CONTINUOUS
 62
     0
100
AcDbCircle
 10
0.0
 20
0.0
 30
0.0
 40
0.5
  0
ENDBLK
  5
5F
100
AcDbEntity
  8
0
100
AcDbBlockEnd
  0
BLOCK
  5
60
100
AcDbEntity
  8
0
100
AcDbBlockBegin
  2
_EX_WNORM
 70
     0
 10
0.0
 20
0.0
 30
0.0
  3
_EX_WNORM
  1

  0
LINE
  5
61
100
AcDbEntity
  8
0
  6
CONTINUOUS
 62
     0
100
AcDbLine
 10
-1.0
 20
0.0
 30
0.0
 11
-1.0
 21
0.0
 31
0.0
  0
LINE
  5
62
100
AcDbEntity
  8
0
  6
CONTINUOUS
 62
     0
100
AcDbLine
 10
0.0
 20
0.0
 30
0.0
 11
-1.0
 21
0.166667
 31
0.0
  0
LINE
  5
63
100
AcDbEntity
  8
0
  6
CONTINUOUS
 62
     0
100
AcDbLine
 10
0.0
 20
0.0
 30
0.0
 11
-1.0
 21
-0.166667
 31
0.0
  0
LINE
  5
64
100
AcDbEntity
  8
0
  6
CONTINUOUS
 62
     0
100
AcDbLine
 10
-1.0
 20
0.166667
 30
0.0
 11
-1.0
 21
-0.166667
 31
0.0
  0
ENDBLK
  5
65
100
AcDbEntity
  8
0
100
AcDbBlockEnd
  0
BLOCK
  5
66
100
AcDbEntity
  8
0
100
AcDbBlockBegin
  2
_EX_NNORM
 70
     0
 10
0.0
 20
0.0
 30
0.0
  3
_EX_NNORM
  1

  0
LINE
  5
67
100
AcDbEntity
  8
0
  6
CONTINUOUS
 62
     0
100
AcDbLine
 10
0.0
 20
0.0
 30
0.0
 11
-1.0
 21
0.0
 31
0.0
  0
LINE
  5
68
100
AcDbEntity
  8
0
  6
CONTINUOUS
 62
     0
100
AcDbLine
 10
0.0
 20
0.0
 30
0.0
 11
-1.0
 21
0.166667
 31
0.0
  0
LINE
  5
69
100
AcDbEntity
  8
0
  6
CONTINUOUS
 62
     0
100
AcDbLine
 10
0.0
 20
0.0
 30
0.0
 11
-1.0
 21
-0.166667
 31
0.0
  0
LINE
  5
6A
100
AcDbEntity
  8
0
  6
CONTINUOUS
 62
     0
100
AcDbLine
 10
-1.0
 20
0.166667
 30
0.0
 11
-1.0
 21
-0.166667
 31
0.0
  0
ENDBLK
  5
6B
100
AcDbEntity
  8
0
100
AcDbBlockEnd
  0
BLOCK
  5
6C
100
AcDbEntity
  8
0
100
AcDbBlockBegin
  2
_EX_BBOX
 70
     0
 10
0.0
 20
0.0
 30
0.0
  3
_EX_BBOX
  1

  0
LINE
  5
6D
100
AcDbEntity
  8
0
  6
CONTINUOUS
 62
     0
100
AcDbLine
 10
0.0
 20
0.0
 30
0.0
 11
-1.0
 21
0.0
 31
0.0
  0
LINE
  5
6E
100
AcDbEntity
  8
0
  6
CONTINUOUS
 62
     0
100
AcDbLine
 10
-0.5
 20
0.5
 30
0.0
 11
0.5
 21
0.5
 31
0.0
  0
LINE
  5
6F
100
AcDbEntity
  8
0
  6
CONTINUOUS
 62
     0
100
AcDbLine
 10
0.5
 20
0.5
 30
0.0
 11
0.5
 21
-0.5
 31
0.0
  0
LINE
  5
70
100
AcDbEntity
  8
0
  6
CONTINUOUS
 62
     0
100
AcDbLine
 10
0.5
 20
-0.5
 30
0.0
 11
-0.5
 21
-0.5
 31
0.0
  0
LINE
  5
71
100
AcDbEntity
  8
0
  6
CONTINUOUS
 62
     0
100
AcDbLine
 10
-0.5
 20
-0.5
 30
0.0
 11
-0.5
 21
0.5
 31
0.0
  0
LINE
  5
72
100
AcDbEntity
  8
0
  6
CONTINUOUS
 62
     0
100
AcDbLine
 10
-0.25
 20
0.25
 30
0.0
 11
0.25
 21
0.25
 31
0.0
  0
LINE
  5
73
100
AcDbEntity
  8
0
  6
CONTINUOUS
 62
     0
100
AcDbLine
 10
0.25
 20
0.25
 30
0.0
 11
0.25
 21
-0.25
 31
0.0
  0
LINE
  5
74
100
AcDbEntity
  8
0
  6
CONTINUOUS
 62
     0
100
AcDbLine
 10
0.25
 20
-0.25
 30
0.0
 11
-0.25
 21
-0.25
 31
0.0
  0
LINE
  5
75
100
AcDbEntity
  8
0
  6
CONTINUOUS
 62
     0
100
AcDbLine
 10
-0.25
 20
-0.25
 30
0.0
 11
-0.25
 21
0.25
 31
0.0
  0
ENDBLK
  5
76
100
AcDbEntity
  8
0
100
AcDbBlockEnd
  0
BLOCK
  5
77
100
AcDbEntity
  8
0
100
AcDbBlockBegin
  2
_EX_WBOX
 70
     0
 10
0.0
 20
0.0
 30
0.0
  3
_EX_WBOX
  1

  0
LINE
  5
78
100
AcDbEntity
  8
0
  6
CONTINUOUS
 62
     0
100
AcDbLine
 10
-0.5
 20
0.0
 30
0.0
 11
-1.0
 21
0.0
 31
0.0
  0
LINE
  5
79
100
AcDbEntity
  8
0
  6
CONTINUOUS
 62
     0
100
AcDbLine
 10
-0.5
 20
0.5
 30
0.0
 11
0.5
 21
0.5
 31
0.0
  0
LINE
  5
7A
100
AcDbEntity
  8
0
  6
CONTINUOUS
 62
     0
100
AcDbLine
 10
0.5
 20
0.5
 30
0.0
 11
0.5
 21
-0.5
 31
0.0
  0
LINE
  5
7B
100
AcDbEntity
  8
0
  6
CONTINUOUS
 62
     0
100
AcDbLine
 10
0.5
 20
-0.5
 30
0.0
 11
-0.5
 21
-0.5
 31
0.0
  0
LINE
  5
7C
100
AcDbEntity
  8
0
  6
CONTINUOUS
 62
     0
100
AcDbLine
 10
-0.5
 20
-0.5
 30
0.0
 11
-0.5
 21
0.5
 31
0.0
  0
ENDBLK
  5
7D
100
AcDbEntity
  8
0
100
AcDbBlockEnd
  0
BLOCK
  5
7E
100
AcDbEntity
  8
0
100
AcDbBlockBegin
  2
_EX_INTEGRAL
 70
     0
 10
0.0
 20
0.0
 30
0.0
  3
_EX_INTEGRAL
  1

  0
LINE
  5
7F
100
AcDbEntity
  8
0
  6
CONTINUOUS
 62
     0
100
AcDbLine
 10
0.0
 20
0.0
 30
0.0
 11
-1.0
 21
0.0
 31
0.0
  0
ARC
  5
80
100
AcDbEntity
  8
0
  6
CONTINUOUS
 62
     0
100
AcDbCircle
 10
0.0
 20
0.0
 30
0.0
 40
0.707107
100
AcDbArc
 50
90.0
 51
180.0
  0
ARC
  5
81
100
AcDbEntity
  8
0
  6
CONTINUOUS
 62
     0
100
AcDbCircle
 10
0.0
 20
0.0
 30
0.0
 40
0.707107
100
AcDbArc
 50
270.0
 51
0.0
  0
ENDBLK
  5
82
100
AcDbEntity
  8
0
100
AcDbBlockEnd
  0
ENDSEC
  0
SECTION
  2
ENTITIES
  0
LINE
  5
83
100
AcDbEntity
  8
LAY-2
  6
CONTINUOUS
 62
     2
100
AcDbLine
 10
83.973708
 20
194.35
 30
0.0
 11
85.426292
 21
194.35
 31
0.0
  0
LINE
  5
84
100
AcDbEntity
  8
LAY-2
  6
CONTINUOUS
 62
     2
100
AcDbLine
 10
82.94216
 20
194.1
 30
0.0
 11
86.45784
 21
194.1
 31
0.0
  0
LINE
  5
85
100
AcDbEntity
  8
LAY-2
  6
CONTINUOUS
 62
     2
100
AcDbLine
 10
82.348936
 20
193.85
 30
0.0
 11
87.051064
 21
193.85
 31
0.0
  0
LINE
  5
86
100
AcDbEntity
  8
LAY-2
  6
CONTINUOUS
 62
     2
100
AcDbLine
 10
81.9
 20
193.6
 30
0.0
 11
87.5
 21
193.6
 31
0.0
  0
LINE
  5
87
100
AcDbEntity
  8
LAY-2
  6
CONTINUOUS
 62
     2
100
AcDbLine
 10
81.533377
 20
193.35
 30
0.0
 11
87.866623
 21
193.35
 31
0.0
  0
LINE
  5
88
100
AcDbEntity
  8
LAY-2
  6
CONTINUOUS
 62
     2
100
AcDbLine
 10
81.222932
 20
193.1
 30
0.0
 11
88.177068
 21
193.1
 31
0.0
  0
LINE
  5
89
100
AcDbEntity
  8
LAY-2
  6
CONTINUOUS
 62
     2
100
AcDbLine
 10
72.2
 20
192.85
 30
0.0
 11
80.255757
 21
192.85
 31
0.0
  0
LINE
  5
8A
100
AcDbEntity
  8
LAY-2
  6
CONTINUOUS
 62
     2
100
AcDbLine
 10
80.95467
 20
192.85
 30
0.0
 11
88.44533
 21
192.85
 31
0.0
  0
LINE
  5
8B
100
AcDbEntity
  8
LAY-2
  6
CONTINUOUS
 62
     2
100
AcDbLine
 10
89.144243
 20
192.85
 30
0.0
 11
95.2
 21
192.85
 31
0.0
  0
LINE
  5
8C
100
AcDbEntity
  8
LAY-2
  6
CONTINUOUS
 62
     2
100
AcDbLine
 10
96.05
 20
192.85
 30
0.0
 11
102.75
 21
192.85
 31
0.0
  0
LINE
  5
8D
100
AcDbEntity
  8
LAY-2
  6
CONTINUOUS
 62
     2
100
AcDbLine
 10
103.5
 20
192.85
 30
0.0
 11
105.2
 21
192.85
 31
0.0
  0
LINE
  5
8E
100
AcDbEntity
  8
LAY-2
  6
CONTINUOUS
 62
     2
100
AcDbLine
 10
108.7
 20
192.85
 30
0.0
 11
110.4
 21
192.85
 31
0.0
  0
LINE
  5
8F
100
AcDbEntity
  8
LAY-2
  6
CONTINUOUS
 62
     2
100
AcDbLine
 10
72.2
 20
192.6
 30
0.0
 11
80.056316
 21
192.6
 31
0.0
  0
LINE
  5
90
100
AcDbEntity
  8
LAY-2
  6
CONTINUOUS
 62
     2
100
AcDbLine
 10
80.72005
 20
192.6
 30
0.0
 11
88.67995
 21
192.6
 31
0.0
  0
LINE
  5
91
100
AcDbEntity
  8
LAY-2
  6
CONTINUOUS
 62
     2
100
AcDbLine
 10
89.343684
 20
192.6
 30
0.0
 11
95.2
 21
192.6
 31
0.0
  0
LINE
  5
92
100
AcDbEntity
  8
LAY-2
  6
CONTINUOUS
 62
     2
100
AcDbLine
 10
96.05
 20
192.6
 30
0.0
 11
102.75
 21
192.6
 31
0.0
  0
LINE
  5
93
100
AcDbEntity
  8
LAY-2
  6
CONTINUOUS
 62
     2
100
AcDbLine
 10
103.5
 20
192.6
 30
0.0
 11
105.364522
 21
192.6
 31
0.0
  0
LINE
  5
94
100
AcDbEntity
  8
LAY-2
  6
CONTINUOUS
 62
     2
100
AcDbLine
 10
108.7
 20
192.6
 30
0.0
 11
110.4
 21
192.6
 31
0.0
  0
LINE
  5
95
100
AcDbEntity
  8
LAY-2
  6
CONTINUOUS
 62
     2
100
AcDbLine
 10
72.2
 20
192.35
 30
0.0
 11
79.87804
 21
192.35
 31
0.0
  0
LINE
  5
96
100
AcDbEntity
  8
LAY-2
  6
CONTINUOUS
 62
     2
100
AcDbLine
 10
80.513414
 20
192.35
 30
0.0
 11
83.400962
 21
192.35
 31
0.0
  0
LINE
  5
97
100
AcDbEntity
  8
LAY-2
  6
CONTINUOUS
 62
     2
100
AcDbLine
 10
85.999038
 20
192.35
 30
0.0
 11
88.886586
 21
192.35
 31
0.0
  0
LINE
  5
98
100
AcDbEntity
  8
LAY-2
  6
CONTINUOUS
 62
     2
100
AcDbLine
 10
89.52196
 20
192.35
 30
0.0
 11
95.2
 21
192.35
 31
0.0
  0
LINE
  5
99
100
AcDbEntity
  8
LAY-2
  6
CONTINUOUS
 62
     2
100
AcDbLine
 10
96.05
 20
192.35
 30
0.0
 11
102.75
 21
192.35
 31
0.0
  0
LINE
  5
9A
100
AcDbEntity
  8
LAY-2
  6
CONTINUOUS
 62
     2
100
AcDbLine
 10
103.5
 20
192.35
 30
0.0
 11
105.529044
 21
192.35
 31
0.0
  0
LINE
  5
9B
100
AcDbEntity
  8
LAY-2
  6
CONTINUOUS
 62
     2
100
AcDbLine
 10
108.7
 20
192.35
 30
0.0
 11
110.4
 21
192.35
 31
0.0
  0
LINE
  5
9C
100
AcDbEntity
  8
LAY-2
  6
CONTINUOUS
 62
     2
100
AcDbLine
 10
72.2
 20
192.1
 30
0.0
 11
79.718655
 21
192.1
 31
0.0
  0
LINE
  5
9D
100
AcDbEntity
  8
LAY-2
  6
CONTINUOUS
 62
     2
100
AcDbLine
 10
80.33079
 20
192.1
 30
0.0
 11
82.897224
 21
192.1
 31
0.0
  0
LINE
  5
9E
100
AcDbEntity
  8
LAY-2
  6
CONTINUOUS
 62
     2
100
AcDbLine
 10
86.502776
 20
192.1
 30
0.0
 11
89.06921
 21
192.1
 31
0.0
  0
LINE
  5
9F
100
AcDbEntity
  8
LAY-2
  6
CONTINUOUS
 62
     2
100
AcDbLine
 10
89.681345
 20
192.1
 30
0.0
 11
95.2
 21
192.1
 31
0.0
  0
LINE
  5
A0
100
AcDbEntity
  8
LAY-2
  6
CONTINUOUS
 62
     2
100
AcDbLine
 10
96.05
 20
192.1
 30
0.0
 11
102.75
 21
192.1
 31
0.0
  0
LINE
  5
A1
100
AcDbEntity
  8
LAY-2
  6
CONTINUOUS
 62
     2
100
AcDbLine
 10
103.5
 20
192.1
 30
0.0
 11
105.693566
 21
192.1
 31
0.0
  0
LINE
  5
A2
100
AcDbEntity
  8
LAY-2
  6
CONTINUOUS
 62
     2
100
AcDbLine
 10
108.7
 20
192.1
 30
0.0
 11
110.4
 21
192.1
 31
0.0
  0
LINE
  5
A3
100
AcDbEntity
  8
LAY-2
  6
CONTINUOUS
 62
     2
100
AcDbLine
 10
72.2
 20
191.85
 30
0.0
 11
79.576398
 21
191.85
 31
0.0
  0
LINE
  5
A4
100
AcDbEntity
  8
LAY-2
  6
CONTINUOUS
 62
     2
100
AcDbLine
 10
80.169272
 20
191.85
 30
0.0
 11
82.534936
 21
191.85
 31
0.0
  0
LINE
  5
A5
100
AcDbEntity
  8
LAY-2
  6
CONTINUOUS
 62
     2
100
AcDbLine
 10
86.865064
 20
191.85
 30
0.0
 11
89.230728
 21
191.85
 31
0.0
  0
LINE
  5
A6
100
AcDbEntity
  8
LAY-2
  6
CONTINUOUS
 62
     2
100
AcDbLine
 10
89.823602
 20
191.85
 30
0.0
 11
95.2
 21
191.85
 31
0.0
  0
LINE
  5
A7
100
AcDbEntity
  8
LAY-2
  6
CONTINUOUS
 62
     2
100
AcDbLine
 10
96.05
 20
191.85
 30
0.0
 11
102.75
 21
191.85
 31
0.0
  0
LINE
  5
A8
100
AcDbEntity
  8
LAY-2
  6
CONTINUOUS
 62
     2
100
AcDbLine
 10
103.5
 20
191.85
 30
0.0
 11
105.858088
 21
191.85
 31
0.0
  0
LINE
  5
A9
100
AcDbEntity
  8
LAY-2
  6
CONTINUOUS
 62
     2
100
AcDbLine
 10
108.7
 20
191.85
 30
0.0
 11
110.4
 21
191.85
 31
0.0
  0
LINE
  5
AA
100
AcDbEntity
  8
LAY-2
  6
CONTINUOUS
 62
     2
100
AcDbLine
 10
72.2
 20
191.6
 30
0.0
 11
79.449876
 21
191.6
 31
0.0
  0
LINE
  5
AB
100
AcDbEntity
  8
LAY-2
  6
CONTINUOUS
 62
     2
100
AcDbLine
 10
80.026671
 20
191.6
 30
0.0
 11
82.25051
 21
191.6
 31
0.0
  0
LINE
  5
AC
100
AcDbEntity
  8
LAY-2
  6
CONTINUOUS
 62
     2
100
AcDbLine
 10
83.82108
 20
191.6
 30
0.0
 11
85.57892
 21
191.6
 31
0.0
  0
LINE
  5
AD
100
AcDbEntity
  8
LAY-2
  6
CONTINUOUS
 62
     2
100
AcDbLine
 10
87.14949
 20
191.6
 30
0.0
 11
89.373329
 21
191.6
 31
0.0
  0
LINE
  5
AE
100
AcDbEntity
  8
LAY-2
  6
CONTINUOUS
 62
     2
100
AcDbLine
 10
89.950124
 20
191.6
 30
0.0
 11
95.2
 21
191.6
 31
0.0
  0
LINE
  5
AF
100
AcDbEntity
  8
LAY-2
  6
CONTINUOUS
 62
     2
100
AcDbLine
 10
96.05
 20
191.6
 30
0.0
 11
102.75
 21
191.6
 31
0.0
  0
LINE
  5
B0
100
AcDbEntity
  8
LAY-2
  6
CONTINUOUS
 62
     2
100
AcDbLine
 10
103.5
 20
191.6
 30
0.0
 11
106.02261
 21
191.6
 31
0.0
  0
LINE
  5
B1
100
AcDbEntity
  8
LAY-2
  6
CONTINUOUS
 62
     2
100
AcDbLine
 10
108.7
 20
191.6
 30
0.0
 11
110.4
 21
191.6
 31
0.0
  0
LINE
  5
B2
100
AcDbEntity
  8
LAY-2
  6
CONTINUOUS
 62
     2
100
AcDbLine
 10
72.2
 20
191.35
 30
0.0
 11
79.337976
 21
191.35
 31
0.0
  0
LINE
  5
B3
100
AcDbEntity
  8
LAY-2
  6
CONTINUOUS
 62
     2
100
AcDbLine
 10
79.901302
 20
191.35
 30
0.0
 11
82.019049
 21
191.35
 31
0.0
  0
LINE
  5
B4
100
AcDbEntity
  8
LAY-2
  6
CONTINUOUS
 62
     2
100
AcDbLine
 10
83.3
 20
191.35
 30
0.0
 11
86.1
 21
191.35
 31
0.0
  0
LINE
  5
B5
100
AcDbEntity
  8
LAY-2
  6
CONTINUOUS
 62
     2
100
AcDbLine
 10
87.380951
 20
191.35
 30
0.0
 11
89.498698
 21
191.35
 31
0.0
  0
LINE
  5
B6
100
AcDbEntity
  8
LAY-2
  6
CONTINUOUS
 62
     2
100
AcDbLine
 10
90.062024
 20
191.35
 30
0.0
 11
95.2
 21
191.35
 31
0.0
  0
LINE
  5
B7
100
AcDbEntity
  8
LAY-2
  6
CONTINUOUS
 62
     2
100
AcDbLine
 10
96.05
 20
191.35
 30
0.0
 11
102.75
 21
191.35
 31
0.0
  0
LINE
  5
B8
100
AcDbEntity
  8
LAY-2
  6
CONTINUOUS
 62
     2
100
AcDbLine
 10
103.5
 20
191.35
 30
0.0
 11
106.187132
 21
191.35
 31
0.0
  0
LINE
  5
B9
100
AcDbEntity
  8
LAY-2
  6
CONTINUOUS
 62
     2
100
AcDbLine
 10
108.7
 20
191.35
 30
0.0
 11
110.4
 21
191.35
 31
0.0
  0
LINE
  5
BA
100
AcDbEntity
  8
LAY-2
  6
CONTINUOUS
 62
     2
100
AcDbLine
 10
75.7
 20
191.1
 30
0.0
 11
77.45
 21
191.1
 31
0.0
  0
LINE
  5
BB
100
AcDbEntity
  8
LAY-2
  6
CONTINUOUS
 62
     2
100
AcDbLine
 10
79.791844
 20
191.1
 30
0.0
 11
81.827719
 21
191.1
 31
0.0
  0
LINE
  5
BC
100
AcDbEntity
  8
LAY-2
  6
CONTINUOUS
 62
     2
100
AcDbLine
 10
82.961466
 20
191.1
 30
0.0
 11
86.438534
 21
191.1
 31
0.0
  0
LINE
  5
BD
100
AcDbEntity
  8
LAY-2
  6
CONTINUOUS
 62
     2
100
AcDbLine
 10
87.572281
 20
191.1
 30
0.0
 11
89.608156
 21
191.1
 31
0.0
  0
LINE
  5
BE
100
AcDbEntity
  8
LAY-2
  6
CONTINUOUS
 62
     2
100
AcDbLine
 10
93.27152
 20
191.1
 30
0.0
 11
95.2
 21
191.1
 31
0.0
  0
LINE
  5
BF
100
AcDbEntity
  8
LAY-2
  6
CONTINUOUS
 62
     2
100
AcDbLine
 10
96.05
 20
191.1
 30
0.0
 11
97.8
 21
191.1
 31
0.0
  0
LINE
  5
C0
100
AcDbEntity
  8
LAY-2
  6
CONTINUOUS
 62
     2
100
AcDbLine
 10
103.5
 20
191.1
 30
0.0
 11
106.351654
 21
191.1
 31
0.0
  0
LINE
  5
C1
100
AcDbEntity
  8
LAY-2
  6
CONTINUOUS
 62
     2
100
AcDbLine
 10
108.7
 20
191.1
 30
0.0
 11
110.4
 21
191.1
 31
0.0
  0
LINE
  5
C2
100
AcDbEntity
  8
LAY-2
  6
CONTINUOUS
 62
     2
100
AcDbLine
 10
75.7
 20
190.85
 30
0.0
 11
77.45
 21
190.85
 31
0.0
  0
LINE
  5
C3
100
AcDbEntity
  8
LAY-2
  6
CONTINUOUS
 62
     2
100
AcDbLine
 10
79.697251
 20
190.85
 30
0.0
 11
81.668911
 21
190.85
 31
0.0
  0
LINE
  5
C4
100
AcDbEntity
  8
LAY-2
  6
CONTINUOUS
 62
     2
100
AcDbLine
 10
82.710025
 20
190.85
 30
0.0
 11
86.689975
 21
190.85
 31
0.0
  0
LINE
  5
C5
100
AcDbEntity
  8
LAY-2
  6
CONTINUOUS
 62
     2
100
AcDbLine
 10
87.731089
 20
190.85
 30
0.0
 11
89.702749
 21
190.85
 31
0.0
  0
LINE
  5
C6
100
AcDbEntity
  8
LAY-2
  6
CONTINUOUS
 62
     2
100
AcDbLine
 10
93.046146
 20
190.85
 30
0.0
 11
94.974625
 21
190.85
 31
0.0
  0
LINE
  5
C7
100
AcDbEntity
  8
LAY-2
  6
CONTINUOUS
 62
     2
100
AcDbLine
 10
96.05
 20
190.85
 30
0.0
 11
97.8
 21
190.85
 31
0.0
  0
LINE
  5
C8
100
AcDbEntity
  8
LAY-2
  6
CONTINUOUS
 62
     2
100
AcDbLine
 10
103.5
 20
190.85
 30
0.0
 11
106.516176
 21
190.85
 31
0.0
  0
LINE
  5
C9
100
AcDbEntity
  8
LAY-2
  6
CONTINUOUS
 62
     2
100
AcDbLine
 10
108.7
 20
190.85
 30
0.0
 11
110.4
 21
190.85
 31
0.0
  0
LINE
  5
CA
100
AcDbEntity
  8
LAY-2
  6
CONTINUOUS
 62
     2
100
AcDbLine
 10
75.7
 20
190.6
 30
0.0
 11
77.45
 21
190.6
 31
0.0
  0
LINE
  5
CB
100
AcDbEntity
  8
LAY-2
  6
CONTINUOUS
 62
     2
100
AcDbLine
 10
79.616694
 20
190.6
 30
0.0
 11
81.537722
 21
190.6
 31
0.0
  0
LINE
  5
CC
100
AcDbEntity
  8
LAY-2
  6
CONTINUOUS
 62
     2
100
AcDbLine
 10
82.515395
 20
190.6
 30
0.0
 11
86.884605
 21
190.6
 31
0.0
  0
LINE
  5
CD
100
AcDbEntity
  8
LAY-2
  6
CONTINUOUS
 62
     2
100
AcDbLine
 10
87.862278
 20
190.6
 30
0.0
 11
89.783306
 21
190.6
 31
0.0
  0
LINE
  5
CE
100
AcDbEntity
  8
LAY-2
  6
CONTINUOUS
 62
     2
100
AcDbLine
 10
92.820771
 20
190.6
 30
0.0
 11
94.749251
 21
190.6
 31
0.0
  0
LINE
  5
CF
100
AcDbEntity
  8
LAY-2
  6
CONTINUOUS
 62
     2
100
AcDbLine
 10
96.05
 20
190.6
 30
0.0
 11
97.8
 21
190.6
 31
0.0
  0
LINE
  5
D0
100
AcDbEntity
  8
LAY-2
  6
CONTINUOUS
 62
     2
100
AcDbLine
 10
103.5
 20
190.6
 30
0.0
 11
105.2
 21
190.6
 31
0.0
  0
LINE
  5
D1
100
AcDbEntity
  8
LAY-2
  6
CONTINUOUS
 62
     2
100
AcDbLine
 10
105.245037
 20
190.6
 30
0.0
 11
106.680699
 21
190.6
 31
0.0
  0
LINE
  5
D2
100
AcDbEntity
  8
LAY-2
  6
CONTINUOUS
 62
     2
100
AcDbLine
 10
108.7
 20
190.6
 30
0.0
 11
110.4
 21
190.6
 31
0.0
  0
LINE
  5
D3
100
AcDbEntity
  8
LAY-2
  6
CONTINUOUS
 62
     2
100
AcDbLine
 10
75.7
 20
190.35
 30
0.0
 11
77.45
 21
190.35
 31
0.0
  0
LINE
  5
D4
100
AcDbEntity
  8
LAY-2
  6
CONTINUOUS
 62
     2
100
AcDbLine
 10
79.549515
 20
190.35
 30
0.0
 11
81.430826
 21
190.35
 31
0.0
  0
LINE
  5
D5
100
AcDbEntity
  8
LAY-2
  6
CONTINUOUS
 62
     2
100
AcDbLine
 10
82.363336
 20
190.35
 30
0.0
 11
87.036664
 21
190.35
 31
0.0
  0
LINE
  5
D6
100
AcDbEntity
  8
LAY-2
  6
CONTINUOUS
 62
     2
100
AcDbLine
 10
87.969174
 20
190.35
 30
0.0
 11
89.850485
 21
190.35
 31
0.0
  0
LINE
  5
D7
100
AcDbEntity
  8
LAY-2
  6
CONTINUOUS
 62
     2
100
AcDbLine
 10
92.595396
 20
190.35
 30
0.0
 11
94.523876
 21
190.35
 31
0.0
  0
LINE
  5
D8
100
AcDbEntity
  8
LAY-2
  6
CONTINUOUS
 62
     2
100
AcDbLine
 10
96.05
 20
190.35
 30
0.0
 11
97.8
 21
190.35
 31
0.0
  0
LINE
  5
D9
100
AcDbEntity
  8
LAY-2
  6
CONTINUOUS
 62
     2
100
AcDbLine
 10
103.5
 20
190.35
 30
0.0
 11
105.2
 21
190.35
 31
0.0
  0
LINE
  5
DA
100
AcDbEntity
  8
LAY-2
  6
CONTINUOUS
 62
     2
100
AcDbLine
 10
105.409559
 20
190.35
 30
0.0
 11
106.845221
 21
190.35
 31
0.0
  0
LINE
  5
DB
100
AcDbEntity
  8
LAY-2
  6
CONTINUOUS
 62
     2
100
AcDbLine
 10
108.7
 20
190.35
 30
0.0
 11
110.4
 21
190.35
 31
0.0
  0
LINE
  5
DC
100
AcDbEntity
  8
LAY-2
  6
CONTINUOUS
 62
     2
100
AcDbLine
 10
75.7
 20
190.1
 30
0.0
 11
77.45
 21
190.1
 31
0.0
  0
LINE
  5
DD
100
AcDbEntity
  8
LAY-2
  6
CONTINUOUS
 62
     2
100
AcDbLine
 10
79.495195
 20
190.1
 30
0.0
 11
81.345898
 21
190.1
 31
0.0
  0
LINE
  5
DE
100
AcDbEntity
  8
LAY-2
  6
CONTINUOUS
 62
     2
100
AcDbLine
 10
82.245922
 20
190.1
 30
0.0
 11
87.154078
 21
190.1
 31
0.0
  0
LINE
  5
DF
100
AcDbEntity
  8
LAY-2
  6
CONTINUOUS
 62
     2
100
AcDbLine
 10
88.054102
 20
190.1
 30
0.0
 11
89.904805
 21
190.1
 31
0.0
  0
LINE
  5
E0
100
AcDbEntity
  8
LAY-2
  6
CONTINUOUS
 62
     2
100
AcDbLine
 10
92.370021
 20
190.1
 30
0.0
 11
94.298501
 21
190.1
 31
0.0
  0
LINE
  5
E1
100
AcDbEntity
  8
LAY-2
  6
CONTINUOUS
 62
     2
100
AcDbLine
 10
96.05
 20
190.1
 30
0.0
 11
97.8
 21
190.1
 31
0.0
  0
LINE
  5
E2
100
AcDbEntity
  8
LAY-2
  6
CONTINUOUS
 62
     2
100
AcDbLine
 10
103.5
 20
190.1
 30
0.0
 11
105.2
 21
190.1
 31
0.0
  0
LINE
  5
E3
100
AcDbEntity
  8
LAY-2
  6
CONTINUOUS
 62
     2
100
AcDbLine
 10
105.574081
 20
190.1
 30
0.0
 11
107.009743
 21
190.1
 31
0.0
  0
LINE
  5
E4
100
AcDbEntity
  8
LAY-2
  6
CONTINUOUS
 62
     2
100
AcDbLine
 10
108.7
 20
190.1
 30
0.0
 11
110.4
 21
190.1
 31
0.0
  0
LINE
  5
E5
100
AcDbEntity
  8
LAY-2
  6
CONTINUOUS
 62
     2
100
AcDbLine
 10
75.7
 20
189.85
 30
0.0
 11
77.45
 21
189.85
 31
0.0
  0
LINE
  5
E6
100
AcDbEntity
  8
LAY-2
  6
CONTINUOUS
 62
     2
100
AcDbLine
 10
79.453334
 20
189.85
 30
0.0
 11
81.281301
 21
189.85
 31
0.0
  0
LINE
  5
E7
100
AcDbEntity
  8
LAY-2
  6
CONTINUOUS
 62
     2
100
AcDbLine
 10
82.158347
 20
189.85
 30
0.0
 11
87.241653
 21
189.85
 31
0.0
  0
LINE
  5
E8
100
AcDbEntity
  8
LAY-2
  6
CONTINUOUS
 62
     2
100
AcDbLine
 10
88.118699
 20
189.85
 30
0.0
 11
89.946666
 21
189.85
 31
0.0
  0
LINE
  5
E9
100
AcDbEntity
  8
LAY-2
  6
CONTINUOUS
 62
     2
100
AcDbLine
 10
92.144647
 20
189.85
 30
0.0
 11
94.073126
 21
189.85
 31
0.0
  0
LINE
  5
EA
100
AcDbEntity
  8
LAY-2
  6
CONTINUOUS
 62
     2
100
AcDbLine
 10
96.05
 20
189.85
 30
0.0
 11
102.75
 21
189.85
 31
0.0
  0
LINE
  5
EB
100
AcDbEntity
  8
LAY-2
  6
CONTINUOUS
 62
     2
100
AcDbLine
 10
103.5
 20
189.85
 30
0.0
 11
105.2
 21
189.85
 31
0.0
  0
LINE
  5
EC
100
AcDbEntity
  8
LAY-2
  6
CONTINUOUS
 62
     2
100
AcDbLine
 10
105.738603
 20
189.85
 30
0.0
 11
107.174265
 21
189.85
 31
0.0
  0
LINE
  5
ED
100
AcDbEntity
  8
LAY-2
  6
CONTINUOUS
 62
     2
100
AcDbLine
 10
108.7
 20
189.85
 30
0.0
 11
110.4
 21
189.85
 31
0.0
  0
LINE
  5
EE
100
AcDbEntity
  8
LAY-2
  6
CONTINUOUS
 62
     2
100
AcDbLine
 10
75.7
 20
189.6
 30
0.0
 11
77.45
 21
189.6
 31
0.0
  0
LINE
  5
EF
100
AcDbEntity
  8
LAY-2
  6
CONTINUOUS
 62
     2
100
AcDbLine
 10
79.423638
 20
189.6
 30
0.0
 11
81.235898
 21
189.6
 31
0.0
  0
LINE
  5
F0
100
AcDbEntity
  8
LAY-2
  6
CONTINUOUS
 62
     2
100
AcDbLine
 10
82.097597
 20
189.6
 30
0.0
 11
87.302403
 21
189.6
 31
0.0
  0
LINE
  5
F1
100
AcDbEntity
  8
LAY-2
  6
CONTINUOUS
 62
     2
100
AcDbLine
 10
88.164102
 20
189.6
 30
0.0
 11
89.976362
 21
189.6
 31
0.0
  0
LINE
  5
F2
100
AcDbEntity
  8
LAY-2
  6
CONTINUOUS
 62
     2
100
AcDbLine
 10
91.919272
 20
189.6
 30
0.0
 11
93.847752
 21
189.6
 31
0.0
  0
LINE
  5
F3
100
AcDbEntity
  8
LAY-2
  6
CONTINUOUS
 62
     2
100
AcDbLine
 10
96.05
 20
189.6
 30
0.0
 11
102.75
 21
189.6
 31
0.0
  0
LINE
  5
F4
100
AcDbEntity
  8
LAY-2
  6
CONTINUOUS
 62
     2
100
AcDbLine
 10
103.5
 20
189.6
 30
0.0
 11
105.2
 21
189.6
 31
0.0
  0
LINE
  5
F5
100
AcDbEntity
  8
LAY-2
  6
CONTINUOUS
 62
     2
100
AcDbLine
 10
105.903125
 20
189.6
 30
0.0
 11
107.338787
 21
189.6
 31
0.0
  0
LINE
  5
F6
100
AcDbEntity
  8
LAY-2
  6
CONTINUOUS
 62
     2
100
AcDbLine
 10
108.7
 20
189.6
 30
0.0
 11
110.4
 21
189.6
 31
0.0
  0
LINE
  5
F7
100
AcDbEntity
  8
LAY-2
  6
CONTINUOUS
 62
     2
100
AcDbLine
 10
75.7
 20
189.35
 30
0.0
 11
77.45
 21
189.35
 31
0.0
  0
LINE
  5
F8
100
AcDbEntity
  8
LAY-2
  6
CONTINUOUS
 62
     2
100
AcDbLine
 10
79.4059
 20
189.35
 30
0.0
 11
81.20894
 21
189.35
 31
0.0
  0
LINE
  5
F9
100
AcDbEntity
  8
LAY-2
  6
CONTINUOUS
 62
     2
100
AcDbLine
 10
82.061819
 20
189.35
 30
0.0
 11
87.338181
 21
189.35
 31
0.0
  0
LINE
  5
FA
100
AcDbEntity
  8
LAY-2
  6
CONTINUOUS
 62
     2
100
AcDbLine
 10
88.19106
 20
189.35
 30
0.0
 11
89.9941
 21
189.35
 31
0.0
  0
LINE
  5
FB
100
AcDbEntity
  8
LAY-2
  6
CONTINUOUS
 62
     2
100
AcDbLine
 10
91.693897
 20
189.35
 30
0.0
 11
93.622377
 21
189.35
 31
0.0
  0
LINE
  5
FC
100
AcDbEntity
  8
LAY-2
  6
CONTINUOUS
 62
     2
100
AcDbLine
 10
96.05
 20
189.35
 30
0.0
 11
102.75
 21
189.35
 31
0.0
  0
LINE
  5
FD
100
AcDbEntity
  8
LAY-2
  6
CONTINUOUS
 62
     2
100
AcDbLine
 10
103.5
 20
189.35
 30
0.0
 11
105.2
 21
189.35
 31
0.0
  0
LINE
  5
FE
100
AcDbEntity
  8
LAY-2
  6
CONTINUOUS
 62
     2
100
AcDbLine
 10
106.067647
 20
189.35
 30
0.0
 11
107.503309
 21
189.35
 31
0.0
  0
LINE
  5
FF
100
AcDbEntity
  8
LAY-2
  6
CONTINUOUS
 62
     2
100
AcDbLine
 10
108.7
 20
189.35
 30
0.0
 11
110.4
 21
189.35
 31
0.0
  0
LINE
  5
100
100
AcDbEntity
  8
LAY-2
  6
CONTINUOUS
 62
     2
100
AcDbLine
 10
75.7
 20
189.1
 30
0.0
 11
77.45
 21
189.1
 31
0.0
  0
LINE
  5
101
100
AcDbEntity
  8
LAY-2
  6
CONTINUOUS
 62
     2
100
AcDbLine
 10
79.4
 20
189.1
 30
0.0
 11
81.2
 21
189.1
 31
0.0
  0
LINE
  5
102
100
AcDbEntity
  8
LAY-2
  6
CONTINUOUS
 62
     2
100
AcDbLine
 10
82.05
 20
189.1
 30
0.0
 11
87.35
 21
189.1
 31
0.0
  0
LINE
  5
103
100
AcDbEntity
  8
LAY-2
  6
CONTINUOUS
 62
     2
100
AcDbLine
 10
88.2
 20
189.1
 30
0.0
 11
90.0
 21
189.1
 31
0.0
  0
LINE
  5
104
100
AcDbEntity
  8
LAY-2
  6
CONTINUOUS
 62
     2
100
AcDbLine
 10
91.468522
 20
189.1
 30
0.0
 11
93.397002
 21
189.1
 31
0.0
  0
LINE
  5
105
100
AcDbEntity
  8
LAY-2
  6
CONTINUOUS
 62
     2
100
AcDbLine
 10
96.05
 20
189.1
 30
0.0
 11
102.75
 21
189.1
 31
0.0
  0
LINE
  5
106
100
AcDbEntity
  8
LAY-2
  6
CONTINUOUS
 62
     2
100
AcDbLine
 10
103.5
 20
189.1
 30
0.0
 11
105.2
 21
189.1
 31
0.0
  0
LINE
  5
107
100
AcDbEntity
  8
LAY-2
  6
CONTINUOUS
 62
     2
100
AcDbLine
 10
106.232169
 20
189.1
 30
0.0
 11
107.667831
 21
189.1
 31
0.0
  0
LINE
  5
108
100
AcDbEntity
  8
LAY-2
  6
CONTINUOUS
 62
     2
100
AcDbLine
 10
108.7
 20
189.1
 30
0.0
 11
110.4
 21
189.1
 31
0.0
  0
LINE
  5
109
100
AcDbEntity
  8
LAY-2
  6
CONTINUOUS
 62
     2
100
AcDbLine
 10
75.7
 20
188.85
 30
0.0
 11
77.45
 21
188.85
 31
0.0
  0
LINE
  5
10A
100
AcDbEntity
  8
LAY-2
  6
CONTINUOUS
 62
     2
100
AcDbLine
 10
79.4059
 20
188.85
 30
0.0
 11
81.20894
 21
188.85
 31
0.0
  0
LINE
  5
10B
100
AcDbEntity
  8
LAY-2
  6
CONTINUOUS
 62
     2
100
AcDbLine
 10
82.061819
 20
188.85
 30
0.0
 11
87.338181
 21
188.85
 31
0.0
  0
LINE
  5
10C
100
AcDbEntity
  8
LAY-2
  6
CONTINUOUS
 62
     2
100
AcDbLine
 10
88.19106
 20
188.85
 30
0.0
 11
89.9941
 21
188.85
 31
0.0
  0
LINE
  5
10D
100
AcDbEntity
  8
LAY-2
  6
CONTINUOUS
 62
     2
100
AcDbLine
 10
91.243148
 20
188.85
 30
0.0
 11
93.171627
 21
188.85
 31
0.0
  0
LINE
  5
10E
100
AcDbEntity
  8
LAY-2
  6
CONTINUOUS
 62
     2
100
AcDbLine
 10
96.05
 20
188.85
 30
0.0
 11
102.75
 21
188.85
 31
0.0
  0
LINE
  5
10F
100
AcDbEntity
  8
LAY-2
  6
CONTINUOUS
 62
     2
100
AcDbLine
 10
103.5
 20
188.85
 30
0.0
 11
105.2
 21
188.85
 31
0.0
  0
LINE
  5
110
100
AcDbEntity
  8
LAY-2
  6
CONTINUOUS
 62
     2
100
AcDbLine
 10
106.396691
 20
188.85
 30
0.0
 11
107.832353
 21
188.85
 31
0.0
  0
LINE
  5
111
100
AcDbEntity
  8
LAY-2
  6
CONTINUOUS
 62
     2
100
AcDbLine
 10
108.7
 20
188.85
 30
0.0
 11
110.4
 21
188.85
 31
0.0
  0
LINE
  5
112
100
AcDbEntity
  8
LAY-2
  6
CONTINUOUS
 62
     2
100
AcDbLine
 10
75.7
 20
188.6
 30
0.0
 11
77.45
 21
188.6
 31
0.0
  0
LINE
  5
113
100
AcDbEntity
  8
LAY-2
  6
CONTINUOUS
 62
     2
100
AcDbLine
 10
79.423638
 20
188.6
 30
0.0
 11
81.235898
 21
188.6
 31
0.0
  0
LINE
  5
114
100
AcDbEntity
  8
LAY-2
  6
CONTINUOUS
 62
     2
100
AcDbLine
 10
82.097597
 20
188.6
 30
0.0
 11
87.302403
 21
188.6
 31
0.0
  0
LINE
  5
115
100
AcDbEntity
  8
LAY-2
  6
CONTINUOUS
 62
     2
100
AcDbLine
 10
88.164102
 20
188.6
 30
0.0
 11
89.976362
 21
188.6
 31
0.0
  0
LINE
  5
116
100
AcDbEntity
  8
LAY-2
  6
CONTINUOUS
 62
     2
100
AcDbLine
 10
91.017773
 20
188.6
 30
0.0
 11
92.946253
 21
188.6
 31
0.0
  0
LINE
  5
117
100
AcDbEntity
  8
LAY-2
  6
CONTINUOUS
 62
     2
100
AcDbLine
 10
96.05
 20
188.6
 30
0.0
 11
102.75
 21
188.6
 31
0.0
  0
LINE
  5
118
100
AcDbEntity
  8
LAY-2
  6
CONTINUOUS
 62
     2
100
AcDbLine
 10
103.5
 20
188.6
 30
0.0
 11
105.2
 21
188.6
 31
0.0
  0
LINE
  5
119
100
AcDbEntity
  8
LAY-2
  6
CONTINUOUS
 62
     2
100
AcDbLine
 10
106.561213
 20
188.6
 30
0.0
 11
107.996875
 21
188.6
 31
0.0
  0
LINE
  5
11A
100
AcDbEntity
  8
LAY-2
  6
CONTINUOUS
 62
     2
100
AcDbLine
 10
108.7
 20
188.6
 30
0.0
 11
110.4
 21
188.6
 31
0.0
  0
LINE
  5
11B
100
AcDbEntity
  8
LAY-2
  6
CONTINUOUS
 62
     2
100
AcDbLine
 10
75.7
 20
188.35
 30
0.0
 11
77.45
 21
188.35
 31
0.0
  0
LINE
  5
11C
100
AcDbEntity
  8
LAY-2
  6
CONTINUOUS
 62
     2
100
AcDbLine
 10
79.453334
 20
188.35
 30
0.0
 11
81.281301
 21
188.35
 31
0.0
  0
LINE
  5
11D
100
AcDbEntity
  8
LAY-2
  6
CONTINUOUS
 62
     2
100
AcDbLine
 10
82.158347
 20
188.35
 30
0.0
 11
87.241653
 21
188.35
 31
0.0
  0
LINE
  5
11E
100
AcDbEntity
  8
LAY-2
  6
CONTINUOUS
 62
     2
100
AcDbLine
 10
88.118699
 20
188.35
 30
0.0
 11
89.946666
 21
188.35
 31
0.0
  0
LINE
  5
11F
100
AcDbEntity
  8
LAY-2
  6
CONTINUOUS
 62
     2
100
AcDbLine
 10
90.792398
 20
188.35
 30
0.0
 11
92.720878
 21
188.35
 31
0.0
  0
LINE
  5
120
100
AcDbEntity
  8
LAY-2
  6
CONTINUOUS
 62
     2
100
AcDbLine
 10
96.05
 20
188.35
 30
0.0
 11
97.8
 21
188.35
 31
0.0
  0
LINE
  5
121
100
AcDbEntity
  8
LAY-2
  6
CONTINUOUS
 62
     2
100
AcDbLine
 10
103.5
 20
188.35
 30
0.0
 11
105.2
 21
188.35
 31
0.0
  0
LINE
  5
122
100
AcDbEntity
  8
LAY-2
  6
CONTINUOUS
 62
     2
100
AcDbLine
 10
106.725735
 20
188.35
 30
0.0
 11
108.161397
 21
188.35
 31
0.0
  0
LINE
  5
123
100
AcDbEntity
  8
LAY-2
  6
CONTINUOUS
 62
     2
100
AcDbLine
 10
108.7
 20
188.35
 30
0.0
 11
110.4
 21
188.35
 31
0.0
  0
LINE
  5
124
100
AcDbEntity
  8
LAY-2
  6
CONTINUOUS
 62
     2
100
AcDbLine
 10
75.7
 20
188.1
 30
0.0
 11
77.45
 21
188.1
 31
0.0
  0
LINE
  5
125
100
AcDbEntity
  8
LAY-2
  6
CONTINUOUS
 62
     2
100
AcDbLine
 10
79.495195
 20
188.1
 30
0.0
 11
81.345898
 21
188.1
 31
0.0
  0
LINE
  5
126
100
AcDbEntity
  8
LAY-2
  6
CONTINUOUS
 62
     2
100
AcDbLine
 10
82.245922
 20
188.1
 30
0.0
 11
87.154078
 21
188.1
 31
0.0
  0
LINE
  5
127
100
AcDbEntity
  8
LAY-2
  6
CONTINUOUS
 62
     2
100
AcDbLine
 10
88.054102
 20
188.1
 30
0.0
 11
89.904805
 21
188.1
 31
0.0
  0
LINE
  5
128
100
AcDbEntity
  8
LAY-2
  6
CONTINUOUS
 62
     2
100
AcDbLine
 10
90.567024
 20
188.1
 30
0.0
 11
92.495503
 21
188.1
 31
0.0
  0
LINE
  5
129
100
AcDbEntity
  8
LAY-2
  6
CONTINUOUS
 62
     2
100
AcDbLine
 10
96.05
 20
188.1
 30
0.0
 11
97.8
 21
188.1
 31
0.0
  0
LINE
  5
12A
100
AcDbEntity
  8
LAY-2
  6
CONTINUOUS
 62
     2
100
AcDbLine
 10
103.5
 20
188.1
 30
0.0
 11
105.2
 21
188.1
 31
0.0
  0
LINE
  5
12B
100
AcDbEntity
  8
LAY-2
  6
CONTINUOUS
 62
     2
100
AcDbLine
 10
106.890257
 20
188.1
 30
0.0
 11
108.325919
 21
188.1
 31
0.0
  0
LINE
  5
12C
100
AcDbEntity
  8
LAY-2
  6
CONTINUOUS
 62
     2
100
AcDbLine
 10
108.7
 20
188.1
 30
0.0
 11
110.4
 21
188.1
 31
0.0
  0
LINE
  5
12D
100
AcDbEntity
  8
LAY-2
  6
CONTINUOUS
 62
     2
100
AcDbLine
 10
75.7
 20
187.85
 30
0.0
 11
77.45
 21
187.85
 31
0.0
  0
LINE
  5
12E
100
AcDbEntity
  8
LAY-2
  6
CONTINUOUS
 62
     2
100
AcDbLine
 10
79.549515
 20
187.85
 30
0.0
 11
81.430826
 21
187.85
 31
0.0
  0
LINE
  5
12F
100
AcDbEntity
  8
LAY-2
  6
CONTINUOUS
 62
     2
100
AcDbLine
 10
82.363336
 20
187.85
 30
0.0
 11
87.036664
 21
187.85
 31
0.0
  0
LINE
  5
130
100
AcDbEntity
  8
LAY-2
  6
CONTINUOUS
 62
     2
100
AcDbLine
 10
87.969174
 20
187.85
 30
0.0
 11
89.850485
 21
187.85
 31
0.0
  0
LINE
  5
131
100
AcDbEntity
  8
LAY-2
  6
CONTINUOUS
 62
     2
100
AcDbLine
 10
90.379023
 20
187.85
 30
0.0
 11
92.270128
 21
187.85
 31
0.0
  0
LINE
  5
132
100
AcDbEntity
  8
LAY-2
  6
CONTINUOUS
 62
     2
100
AcDbLine
 10
96.05
 20
187.85
 30
0.0
 11
97.8
 21
187.85
 31
0.0
  0
LINE
  5
133
100
AcDbEntity
  8
LAY-2
  6
CONTINUOUS
 62
     2
100
AcDbLine
 10
103.5
 20
187.85
 30
0.0
 11
105.2
 21
187.85
 31
0.0
  0
LINE
  5
134
100
AcDbEntity
  8
LAY-2
  6
CONTINUOUS
 62
     2
100
AcDbLine
 10
107.054779
 20
187.85
 30
0.0
 11
108.490441
 21
187.85
 31
0.0
  0
LINE
  5
135
100
AcDbEntity
  8
LAY-2
  6
CONTINUOUS
 62
     2
100
AcDbLine
 10
108.7
 20
187.85
 30
0.0
 11
110.4
 21
187.85
 31
0.0
  0
LINE
  5
136
100
AcDbEntity
  8
LAY-2
  6
CONTINUOUS
 62
     2
100
AcDbLine
 10
75.7
 20
187.6
 30
0.0
 11
77.45
 21
187.6
 31
0.0
  0
LINE
  5
137
100
AcDbEntity
  8
LAY-2
  6
CONTINUOUS
 62
     2
100
AcDbLine
 10
79.616694
 20
187.6
 30
0.0
 11
81.537722
 21
187.6
 31
0.0
  0
LINE
  5
138
100
AcDbEntity
  8
LAY-2
  6
CONTINUOUS
 62
     2
100
AcDbLine
 10
82.515395
 20
187.6
 30
0.0
 11
86.884605
 21
187.6
 31
0.0
  0
LINE
  5
139
100
AcDbEntity
  8
LAY-2
  6
CONTINUOUS
 62
     2
100
AcDbLine
 10
87.862278
 20
187.6
 30
0.0
 11
89.783306
 21
187.6
 31
0.0
  0
LINE
  5
13A
100
AcDbEntity
  8
LAY-2
  6
CONTINUOUS
 62
     2
100
AcDbLine
 10
90.318167
 20
187.6
 30
0.0
 11
92.044754
 21
187.6
 31
0.0
  0
LINE
  5
13B
100
AcDbEntity
  8
LAY-2
  6
CONTINUOUS
 62
     2
100
AcDbLine
 10
96.05
 20
187.6
 30
0.0
 11
97.8
 21
187.6
 31
0.0
  0
LINE
  5
13C
100
AcDbEntity
  8
LAY-2
  6
CONTINUOUS
 62
     2
100
AcDbLine
 10
103.5
 20
187.6
 30
0.0
 11
105.2
 21
187.6
 31
0.0
  0
LINE
  5
13D
100
AcDbEntity
  8
LAY-2
  6
CONTINUOUS
 62
     2
100
AcDbLine
 10
107.219301
 20
187.6
 30
0.0
 11
108.654963
 21
187.6
 31
0.0
  0
LINE
  5
13E
100
AcDbEntity
  8
LAY-2
  6
CONTINUOUS
 62
     2
100
AcDbLine
 10
108.7
 20
187.6
 30
0.0
 11
110.4
 21
187.6
 31
0.0
  0
LINE
  5
13F
100
AcDbEntity
  8
LAY-2
  6
CONTINUOUS
 62
     2
100
AcDbLine
 10
75.7
 20
187.35
 30
0.0
 11
77.45
 21
187.35
 31
0.0
  0
LINE
  5
140
100
AcDbEntity
  8
LAY-2
  6
CONTINUOUS
 62
     2
100
AcDbLine
 10
79.697251
 20
187.35
 30
0.0
 11
81.668911
 21
187.35
 31
0.0
  0
LINE
  5
141
100
AcDbEntity
  8
LAY-2
  6
CONTINUOUS
 62
     2
100
AcDbLine
 10
82.710025
 20
187.35
 30
0.0
 11
86.689975
 21
187.35
 31
0.0
  0
LINE
  5
142
100
AcDbEntity
  8
LAY-2
  6
CONTINUOUS
 62
     2
100
AcDbLine
 10
87.731089
 20
187.35
 30
0.0
 11
89.702749
 21
187.35
 31
0.0
  0
LINE
  5
143
100
AcDbEntity
  8
LAY-2
  6
CONTINUOUS
 62
     2
100
AcDbLine
 10
90.245385
 20
187.35
 30
0.0
 11
91.819379
 21
187.35
 31
0.0
  0
LINE
  5
144
100
AcDbEntity
  8
LAY-2
  6
CONTINUOUS
 62
     2
100
AcDbLine
 10
96.05
 20
187.35
 30
0.0
 11
97.8
 21
187.35
 31
0.0
  0
LINE
  5
145
100
AcDbEntity
  8
LAY-2
  6
CONTINUOUS
 62
     2
100
AcDbLine
 10
103.5
 20
187.35
 30
0.0
 11
105.2
 21
187.35
 31
0.0
  0
LINE
  5
146
100
AcDbEntity
  8
LAY-2
  6
CONTINUOUS
 62
     2
100
AcDbLine
 10
107.383824
 20
187.35
 30
0.0
 11
110.4
 21
187.35
 31
0.0
  0
LINE
  5
147
100
AcDbEntity
  8
LAY-2
  6
CONTINUOUS
 62
     2
100
AcDbLine
 10
75.7
 20
187.1
 30
0.0
 11
77.45
 21
187.1
 31
0.0
  0
LINE
  5
148
100
AcDbEntity
  8
LAY-2
  6
CONTINUOUS
 62
     2
100
AcDbLine
 10
79.791844
 20
187.1
 30
0.0
 11
81.827719
 21
187.1
 31
0.0
  0
LINE
  5
149
100
AcDbEntity
  8
LAY-2
  6
CONTINUOUS
 62
     2
100
AcDbLine
 10
82.961466
 20
187.1
 30
0.0
 11
86.438534
 21
187.1
 31
0.0
  0
LINE
  5
14A
100
AcDbEntity
  8
LAY-2
  6
CONTINUOUS
 62
     2
100
AcDbLine
 10
87.572281
 20
187.1
 30
0.0
 11
89.608156
 21
187.1
 31
0.0
  0
LINE
  5
14B
100
AcDbEntity
  8
LAY-2
  6
CONTINUOUS
 62
     2
100
AcDbLine
 10
90.160201
 20
187.1
 30
0.0
 11
95.2
 21
187.1
 31
0.0
  0
LINE
  5
14C
100
AcDbEntity
  8
LAY-2
  6
CONTINUOUS
 62
     2
100
AcDbLine
 10
96.05
 20
187.1
 30
0.0
 11
102.75
 21
187.1
 31
0.0
  0
LINE
  5
14D
100
AcDbEntity
  8
LAY-2
  6
CONTINUOUS
 62
     2
100
AcDbLine
 10
103.5
 20
187.1
 30
0.0
 11
105.2
 21
187.1
 31
0.0
  0
LINE
  5
14E
100
AcDbEntity
  8
LAY-2
  6
CONTINUOUS
 62
     2
100
AcDbLine
 10
107.548346
 20
187.1
 30
0.0
 11
110.4
 21
187.1
 31
0.0
  0
LINE
  5
14F
100
AcDbEntity
  8
LAY-2
  6
CONTINUOUS
 62
     2
100
AcDbLine
 10
75.7
 20
186.85
 30
0.0
 11
77.45
 21
186.85
 31
0.0
  0
LINE
  5
150
100
AcDbEntity
  8
LAY-2
  6
CONTINUOUS
 62
     2
100
AcDbLine
 10
79.901302
 20
186.85
 30
0.0
 11
82.019049
 21
186.85
 31
0.0
  0
LINE
  5
151
100
AcDbEntity
  8
LAY-2
  6
CONTINUOUS
 62
     2
100
AcDbLine
 10
83.3
 20
186.85
 30
0.0
 11
86.1
 21
186.85
 31
0.0
  0
LINE
  5
152
100
AcDbEntity
  8
LAY-2
  6
CONTINUOUS
 62
     2
100
AcDbLine
 10
87.380951
 20
186.85
 30
0.0
 11
89.498698
 21
186.85
 31
0.0
  0
LINE
  5
153
100
AcDbEntity
  8
LAY-2
  6
CONTINUOUS
 62
     2
100
AcDbLine
 10
90.062024
 20
186.85
 30
0.0
 11
95.2
 21
186.85
 31
0.0
  0
LINE
  5
154
100
AcDbEntity
  8
LAY-2
  6
CONTINUOUS
 62
     2
100
AcDbLine
 10
96.05
 20
186.85
 30
0.0
 11
102.75
 21
186.85
 31
0.0
  0
LINE
  5
155
100
AcDbEntity
  8
LAY-2
  6
CONTINUOUS
 62
     2
100
AcDbLine
 10
103.5
 20
186.85
 30
0.0
 11
105.2
 21
186.85
 31
0.0
  0
LINE
  5
156
100
AcDbEntity
  8
LAY-2
  6
CONTINUOUS
 62
     2
100
AcDbLine
 10
107.712868
 20
186.85
 30
0.0
 11
110.4
 21
186.85
 31
0.0
  0
LINE
  5
157
100
AcDbEntity
  8
LAY-2
  6
CONTINUOUS
 62
     2
100
AcDbLine
 10
75.7
 20
186.6
 30
0.0
 11
77.45
 21
186.6
 31
0.0
  0
LINE
  5
158
100
AcDbEntity
  8
LAY-2
  6
CONTINUOUS
 62
     2
100
AcDbLine
 10
80.026671
 20
186.6
 30
0.0
 11
82.25051
 21
186.6
 31
0.0
  0
LINE
  5
159
100
AcDbEntity
  8
LAY-2
  6
CONTINUOUS
 62
     2
100
AcDbLine
 10
83.82108
 20
186.6
 30
0.0
 11
85.57892
 21
186.6
 31
0.0
  0
LINE
  5
15A
100
AcDbEntity
  8
LAY-2
  6
CONTINUOUS
 62
     2
100
AcDbLine
 10
87.14949
 20
186.6
 30
0.0
 11
89.373329
 21
186.6
 31
0.0
  0
LINE
  5
15B
100
AcDbEntity
  8
LAY-2
  6
CONTINUOUS
 62
     2
100
AcDbLine
 10
89.950124
 20
186.6
 30
0.0
 11
95.2
 21
186.6
 31
0.0
  0
LINE
  5
15C
100
AcDbEntity
  8
LAY-2
  6
CONTINUOUS
 62
     2
100
AcDbLine
 10
96.05
 20
186.6
 30
0.0
 11
102.75
 21
186.6
 31
0.0
  0
LINE
  5
15D
100
AcDbEntity
  8
LAY-2
  6
CONTINUOUS
 62
     2
100
AcDbLine
 10
103.5
 20
186.6
 30
0.0
 11
105.2
 21
186.6
 31
0.0
  0
LINE
  5
15E
100
AcDbEntity
  8
LAY-2
  6
CONTINUOUS
 62
     2
100
AcDbLine
 10
107.87739
 20
186.6
 30
0.0
 11
110.4
 21
186.6
 31
0.0
  0
LINE
  5
15F
100
AcDbEntity
  8
LAY-2
  6
CONTINUOUS
 62
     2
100
AcDbLine
 10
75.7
 20
186.35
 30
0.0
 11
77.45
 21
186.35
 31
0.0
  0
LINE
  5
160
100
AcDbEntity
  8
LAY-2
  6
CONTINUOUS
 62
     2
100
AcDbLine
 10
80.169272
 20
186.35
 30
0.0
 11
82.534936
 21
186.35
 31
0.0
  0
LINE
  5
161
100
AcDbEntity
  8
LAY-2
  6
CONTINUOUS
 62
     2
100
AcDbLine
 10
86.865064
 20
186.35
 30
0.0
 11
89.230728
 21
186.35
 31
0.0
  0
LINE
  5
162
100
AcDbEntity
  8
LAY-2
  6
CONTINUOUS
 62
     2
100
AcDbLine
 10
89.823602
 20
186.35
 30
0.0
 11
95.2
 21
186.35
 31
0.0
  0
LINE
  5
163
100
AcDbEntity
  8
LAY-2
  6
CONTINUOUS
 62
     2
100
AcDbLine
 10
96.05
 20
186.35
 30
0.0
 11
102.75
 21
186.35
 31
0.0
  0
LINE
  5
164
100
AcDbEntity
  8
LAY-2
  6
CONTINUOUS
 62
     2
100
AcDbLine
 10
103.5
 20
186.35
 30
0.0
 11
105.2
 21
186.35
 31
0.0
  0
LINE
  5
165
100
AcDbEntity
  8
LAY-2
  6
CONTINUOUS
 62
     2
100
AcDbLine
 10
108.041912
 20
186.35
 30
0.0
 11
110.4
 21
186.35
 31
0.0
  0
LINE
  5
166
100
AcDbEntity
  8
LAY-2
  6
CONTINUOUS
 62
     2
100
AcDbLine
 10
75.7
 20
186.1
 30
0.0
 11
77.45
 21
186.1
 31
0.0
  0
LINE
  5
167
100
AcDbEntity
  8
LAY-2
  6
CONTINUOUS
 62
     2
100
AcDbLine
 10
80.33079
 20
186.1
 30
0.0
 11
82.897224
 21
186.1
 31
0.0
  0
LINE
  5
168
100
AcDbEntity
  8
LAY-2
  6
CONTINUOUS
 62
     2
100
AcDbLine
 10
86.502776
 20
186.1
 30
0.0
 11
89.06921
 21
186.1
 31
0.0
  0
LINE
  5
169
100
AcDbEntity
  8
LAY-2
  6
CONTINUOUS
 62
     2
100
AcDbLine
 10
89.681345
 20
186.1
 30
0.0
 11
95.2
 21
186.1
 31
0.0
  0
LINE
  5
16A
100
AcDbEntity
  8
LAY-2
  6
CONTINUOUS
 62
     2
100
AcDbLine
 10
96.05
 20
186.1
 30
0.0
 11
102.75
 21
186.1
 31
0.0
  0
LINE
  5
16B
100
AcDbEntity
  8
LAY-2
  6
CONTINUOUS
 62
     2
100
AcDbLine
 10
103.5
 20
186.1
 30
0.0
 11
105.2
 21
186.1
 31
0.0
  0
LINE
  5
16C
100
AcDbEntity
  8
LAY-2
  6
CONTINUOUS
 62
     2
100
AcDbLine
 10
108.206434
 20
186.1
 30
0.0
 11
110.4
 21
186.1
 31
0.0
  0
LINE
  5
16D
100
AcDbEntity
  8
LAY-2
  6
CONTINUOUS
 62
     2
100
AcDbLine
 10
75.7
 20
185.85
 30
0.0
 11
77.45
 21
185.85
 31
0.0
  0
LINE
  5
16E
100
AcDbEntity
  8
LAY-2
  6
CONTINUOUS
 62
     2
100
AcDbLine
 10
80.513414
 20
185.85
 30
0.0
 11
83.400962
 21
185.85
 31
0.0
  0
LINE
  5
16F
100
AcDbEntity
  8
LAY-2
  6
CONTINUOUS
 62
     2
100
AcDbLine
 10
85.999038
 20
185.85
 30
0.0
 11
88.886586
 21
185.85
 31
0.0
  0
LINE
  5
170
100
AcDbEntity
  8
LAY-2
  6
CONTINUOUS
 62
     2
100
AcDbLine
 10
89.52196
 20
185.85
 30
0.0
 11
95.2
 21
185.85
 31
0.0
  0
LINE
  5
171
100
AcDbEntity
  8
LAY-2
  6
CONTINUOUS
 62
     2
100
AcDbLine
 10
96.05
 20
185.85
 30
0.0
 11
102.75
 21
185.85
 31
0.0
  0
LINE
  5
172
100
AcDbEntity
  8
LAY-2
  6
CONTINUOUS
 62
     2
100
AcDbLine
 10
103.5
 20
185.85
 30
0.0
 11
105.2
 21
185.85
 31
0.0
  0
LINE
  5
173
100
AcDbEntity
  8
LAY-2
  6
CONTINUOUS
 62
     2
100
AcDbLine
 10
108.370956
 20
185.85
 30
0.0
 11
110.4
 21
185.85
 31
0.0
  0
LINE
  5
174
100
AcDbEntity
  8
LAY-2
  6
CONTINUOUS
 62
     2
100
AcDbLine
 10
75.7
 20
185.6
 30
0.0
 11
77.45
 21
185.6
 31
0.0
  0
LINE
  5
175
100
AcDbEntity
  8
LAY-2
  6
CONTINUOUS
 62
     2
100
AcDbLine
 10
80.72005
 20
185.6
 30
0.0
 11
88.67995
 21
185.6
 31
0.0
  0
LINE
  5
176
100
AcDbEntity
  8
LAY-2
  6
CONTINUOUS
 62
     2
100
AcDbLine
 10
89.343684
 20
185.6
 30
0.0
 11
95.2
 21
185.6
 31
0.0
  0
LINE
  5
177
100
AcDbEntity
  8
LAY-2
  6
CONTINUOUS
 62
     2
100
AcDbLine
 10
96.05
 20
185.6
 30
0.0
 11
102.75
 21
185.6
 31
0.0
  0
LINE
  5
178
100
AcDbEntity
  8
LAY-2
  6
CONTINUOUS
 62
     2
100
AcDbLine
 10
103.5
 20
185.6
 30
0.0
 11
105.2
 21
185.6
 31
0.0
  0
LINE
  5
179
100
AcDbEntity
  8
LAY-2
  6
CONTINUOUS
 62
     2
100
AcDbLine
 10
108.535478
 20
185.6
 30
0.0
 11
110.4
 21
185.6
 31
0.0
  0
LINE
  5
17A
100
AcDbEntity
  8
LAY-2
  6
CONTINUOUS
 62
     2
100
AcDbLine
 10
80.95467
 20
185.35
 30
0.0
 11
88.44533
 21
185.35
 31
0.0
  0
LINE
  5
17B
100
AcDbEntity
  8
LAY-2
  6
CONTINUOUS
 62
     2
100
AcDbLine
 10
81.222932
 20
185.1
 30
0.0
 11
88.177068
 21
185.1
 31
0.0
  0
LINE
  5
17C
100
AcDbEntity
  8
LAY-2
  6
CONTINUOUS
 62
     2
100
AcDbLine
 10
81.533377
 20
184.85
 30
0.0
 11
87.866623
 21
184.85
 31
0.0
  0
LINE
  5
17D
100
AcDbEntity
  8
LAY-2
  6
CONTINUOUS
 62
     2
100
AcDbLine
 10
81.9
 20
184.6
 30
0.0
 11
87.5
 21
184.6
 31
0.0
  0
LINE
  5
17E
100
AcDbEntity
  8
LAY-2
  6
CONTINUOUS
 62
     2
100
AcDbLine
 10
82.348936
 20
184.35
 30
0.0
 11
87.051064
 21
184.35
 31
0.0
  0
LINE
  5
17F
100
AcDbEntity
  8
LAY-2
  6
CONTINUOUS
 62
     2
100
AcDbLine
 10
82.94216
 20
184.1
 30
0.0
 11
86.45784
 21
184.1
 31
0.0
  0
LINE
  5
180
100
AcDbEntity
  8
LAY-2
  6
CONTINUOUS
 62
     2
100
AcDbLine
 10
83.973708
 20
183.85
 30
0.0
 11
85.426292
 21
183.85
 31
0.0
  0
LINE
  5
181
100
AcDbEntity
  8
LAY-2
  6
CONTINUOUS
 62
     2
100
AcDbLine
 10
25.9
 20
204.278
 30
0.0
 11
295.913
 21
204.278
 31
0.0
  0
LINE
  5
182
100
AcDbEntity
  8
LAY-2
  6
CONTINUOUS
 62
     2
100
AcDbLine
 10
295.913
 20
204.278
 30
0.0
 11
295.913
 21
25.5
 31
0.0
  0
LINE
  5
183
100
AcDbEntity
  8
LAY-2
  6
CONTINUOUS
 62
     2
100
AcDbLine
 10
295.913
 20
25.5
 30
0.0
 11
25.9
 21
25.5
 31
0.0
  0
LINE
  5
184
100
AcDbEntity
  8
LAY-2
  6
CONTINUOUS
 62
     2
100
AcDbLine
 10
25.9
 20
25.5
 30
0.0
 11
25.9
 21
204.278
 31
0.0
  0
LINE
  5
185
100
AcDbEntity
  8
LAY-2
  6
CONTINUOUS
 62
     2
100
AcDbLine
 10
295.913
 20
68.1
 30
0.0
 11
25.9
 21
68.1
 31
0.0
  0
LINE
  5
186
100
AcDbEntity
  8
LAY-2
  6
CONTINUOUS
 62
     2
100
AcDbLine
 10
295.913
 20
75.2
 30
0.0
 11
25.9
 21
75.2
 31
0.0
  0
LINE
  5
187
100
AcDbEntity
  8
LAY-2
  6
CONTINUOUS
 62
     2
100
AcDbLine
 10
295.913
 20
117.8
 30
0.0
 11
25.9
 21
117.8
 31
0.0
  0
LINE
  5
188
100
AcDbEntity
  8
LAY-2
  6
CONTINUOUS
 62
     2
100
AcDbLine
 10
295.913
 20
124.9
 30
0.0
 11
25.9
 21
124.9
 31
0.0
  0
LINE
  5
189
100
AcDbEntity
  8
LAY-2
  6
CONTINUOUS
 62
     2
100
AcDbLine
 10
295.913
 20
167.5
 30
0.0
 11
25.9
 21
167.5
 31
0.0
  0
LINE
  5
18A
100
AcDbEntity
  8
LAY-2
  6
CONTINUOUS
 62
     2
100
AcDbLine
 10
295.913
 20
174.6
 30
0.0
 11
25.9
 21
174.6
 31
0.0
  0
LINE
  5
18B
100
AcDbEntity
  8
LAY-2
  6
CONTINUOUS
 62
     2
100
AcDbLine
 10
70.902167
 20
174.6
 30
0.0
 11
70.902167
 21
25.5
 31
0.0
  0
LINE
  5
18C
100
AcDbEntity
  8
LAY-2
  6
CONTINUOUS
 62
     2
100
AcDbLine
 10
115.904333
 20
174.6
 30
0.0
 11
115.904333
 21
25.5
 31
0.0
  0
LINE
  5
18D
100
AcDbEntity
  8
LAY-2
  6
CONTINUOUS
 62
     2
100
AcDbLine
 10
160.9065
 20
174.6
 30
0.0
 11
160.9065
 21
25.5
 31
0.0
  0
LINE
  5
18E
100
AcDbEntity
  8
LAY-2
  6
CONTINUOUS
 62
     2
100
AcDbLine
 10
205.908667
 20
174.6
 30
0.0
 11
205.908667
 21
25.5
 31
0.0
  0
LINE
  5
18F
100
AcDbEntity
  8
LAY-2
  6
CONTINUOUS
 62
     2
100
AcDbLine
 10
250.910833
 20
174.6
 30
0.0
 11
250.910833
 21
25.5
 31
0.0
  0
TEXT
  5
190
100
AcDbEntity
  8
LAY-2
  6
CONTINUOUS
 62
     7
100
AcDbText
 10
30.0
 20
168.5
 30
0.0
 40
5.0
  1
１５Ａ×１４０Ｌ
 41
0.7665
  7
EXCADSTD
 72
     5
 11
66.5
 21
168.5
 31
0.0
100
AcDbText
  0
TEXT
  5
191
100
AcDbEntity
  8
LAY-2
  6
CONTINUOUS
 62
     7
100
AcDbText
 10
75.6
 20
168.3
 30
0.0
 40
5.0
  1
２０Ａ×１４０Ｌ
 41
0.7665
  7
EXCADSTD
 72
     5
 11
112.1
 21
168.3
 31
0.0
100
AcDbText
  0
TEXT
  5
192
100
AcDbEntity
  8
LAY-2
  6
CONTINUOUS
 62
     7
100
AcDbText
 10
120.2
 20
168.3
 30
0.0
 40
5.0
  1
２５Ａ×１４０Ｌ
 41
0.7665
  7
EXCADSTD
 72
     5
 11
156.7
 21
168.3
 31
0.0
100
AcDbText
  0
TEXT
  5
193
100
AcDbEntity
  8
LAY-2
  6
CONTINUOUS
 62
     7
100
AcDbText
 10
165.2
 20
168.5
 30
0.0
 40
5.0
  1
３２Ａ×１５０Ａ
 41
0.7665
  7
EXCADSTD
 72
     5
 11
201.7
 21
168.5
 31
0.0
100
AcDbText
  0
TEXT
  5
194
100
AcDbEntity
  8
LAY-2
  6
CONTINUOUS
 62
     7
100
AcDbText
 10
210.4
 20
168.5
 30
0.0
 40
5.0
  1
４０Ａ×１５０Ａ
 41
0.7665
  7
EXCADSTD
 72
     5
 11
246.9
 21
168.5
 31
0.0
100
AcDbText
  0
TEXT
  5
195
100
AcDbEntity
  8
LAY-2
  6
CONTINUOUS
 62
     7
100
AcDbText
 10
255.5
 20
168.6
 30
0.0
 40
5.0
  1
５０Ａ×１５０Ｌ
 41
0.7665
  7
EXCADSTD
 72
     5
 11
292.0
 21
168.6
 31
0.0
100
AcDbText
  0
TEXT
  5
196
100
AcDbEntity
  8
LAY-2
  6
CONTINUOUS
 62
     7
100
AcDbText
 10
129.649998
 20
183.9
 30
0.0
 40
11.0
  1
ト－ゼンフレックスＳ
 41
0.805636
  7
EXCADSTD
 72
     5
 11
235.149998
 21
183.9
 31
0.0
100
AcDbText
  0
LINE
  5
197
100
AcDbEntity
  8
LAY-2
  6
CONTINUOUS
 62
     2
100
AcDbLine
 10
75.7
 20
191.1
 30
0.0
 11
75.7
 21
185.35
 31
0.0
  0
LINE
  5
198
100
AcDbEntity
  8
LAY-2
  6
CONTINUOUS
 62
     2
100
AcDbLine
 10
77.45
 20
191.1
 30
0.0
 11
77.45
 21
185.35
 31
0.0
  0
CIRCLE
  5
199
100
AcDbEntity
  8
LAY-2
  6
CONTINUOUS
 62
     2
100
AcDbCircle
 10
84.7
 20
189.1
 30
0.0
 40
2.65
  0
CIRCLE
  5
19A
100
AcDbEntity
  8
LAY-2
  6
CONTINUOUS
 62
     2
100
AcDbCircle
 10
84.7
 20
189.1
 30
0.0
 40
3.5
  0
CIRCLE
  5
19B
100
AcDbEntity
  8
LAY-2
  6
CONTINUOUS
 62
     2
100
AcDbCircle
 10
84.7
 20
189.1
 30
0.0
 40
5.3
  0
LINE
  5
19C
100
AcDbEntity
  8
LAY-2
  6
CONTINUOUS
 62
     2
100
AcDbLine
 10
72.2
 20
192.85
 30
0.0
 11
72.2
 21
191.1
 31
0.0
  0
LINE
  5
19D
100
AcDbEntity
  8
LAY-2
  6
CONTINUOUS
 62
     2
100
AcDbLine
 10
75.7
 20
185.35
 30
0.0
 11
77.45
 21
185.35
 31
0.0
  0
ARC
  5
19E
100
AcDbEntity
  8
LAY-2
  6
CONTINUOUS
 62
     2
100
AcDbCircle
 10
84.7
 20
189.1
 30
0.0
 40
5.814963
100
AcDbArc
 50
139.842723
 51
159.882882
  0
ARC
  5
19F
100
AcDbEntity
  8
LAY-2
  6
CONTINUOUS
 62
     2
100
AcDbCircle
 10
84.7
 20
189.1
 30
0.0
 40
5.814963
100
AcDbArc
 50
20.117118
 51
40.157277
  0
LINE
  5
1A0
100
AcDbEntity
  8
LAY-2
  6
CONTINUOUS
 62
     2
100
AcDbLine
 10
95.2
 20
187.1
 30
0.0
 11
95.2
 21
185.35
 31
0.0
  0
LINE
  5
1A1
100
AcDbEntity
  8
LAY-2
  6
CONTINUOUS
 62
     2
100
AcDbLine
 10
95.2
 20
192.85
 30
0.0
 11
95.2
 21
191.1
 31
0.0
  0
ARC
  5
1A2
100
AcDbEntity
  8
LAY-2
  6
CONTINUOUS
 62
     2
100
AcDbCircle
 10
84.7
 20
189.1
 30
0.0
 40
5.814963
100
AcDbArc
 50
319.842723
 51
348.135428
  0
LINE
  5
1A3
100
AcDbEntity
  8
LAY-2
  6
CONTINUOUS
 62
     2
100
AcDbLine
 10
95.2
 20
191.1
 30
0.0
 11
91.594004
 21
187.1
 31
0.0
  0
LINE
  5
1A4
100
AcDbEntity
  8
LAY-2
  6
CONTINUOUS
 62
     2
100
AcDbLine
 10
93.27152
 20
191.1
 30
0.0
 11
90.390734
 21
187.904449
 31
0.0
  0
LINE
  5
1A5
100
AcDbEntity
  8
LAY-2
  6
CONTINUOUS
 62
     2
100
AcDbLine
 10
96.05
 20
192.85
 30
0.0
 11
96.05
 21
185.35
 31
0.0
  0
LINE
  5
1A6
100
AcDbEntity
  8
LAY-2
  6
CONTINUOUS
 62
     2
100
AcDbLine
 10
97.8
 20
189.85
 30
0.0
 11
102.75
 21
189.85
 31
0.0
  0
LINE
  5
1A7
100
AcDbEntity
  8
LAY-2
  6
CONTINUOUS
 62
     2
100
AcDbLine
 10
97.8
 20
188.35
 30
0.0
 11
102.75
 21
188.35
 31
0.0
  0
LINE
  5
1A8
100
AcDbEntity
  8
LAY-2
  6
CONTINUOUS
 62
     2
100
AcDbLine
 10
103.5
 20
192.85
 30
0.0
 11
103.5
 21
185.35
 31
0.0
  0
LINE
  5
1A9
100
AcDbEntity
  8
LAY-2
  6
CONTINUOUS
 62
     2
100
AcDbLine
 10
110.4
 20
192.85
 30
0.0
 11
110.4
 21
185.35
 31
0.0
  0
LINE
  5
1AA
100
AcDbEntity
  8
LAY-2
  6
CONTINUOUS
 62
     2
100
AcDbLine
 10
108.7
 20
185.35
 30
0.0
 11
105.2
 21
190.668436
 31
0.0
  0
LINE
  5
1AB
100
AcDbEntity
  8
LAY-2
  6
CONTINUOUS
 62
     2
100
AcDbLine
 10
105.2
 20
192.85
 30
0.0
 11
108.7
 21
187.531564
 31
0.0
  0
LINE
  5
1AC
100
AcDbEntity
  8
LAY-2
  6
CONTINUOUS
 62
     2
100
AcDbLine
 10
102.75
 20
192.85
 30
0.0
 11
102.75
 21
191.1
 31
0.0
  0
LINE
  5
1AD
100
AcDbEntity
  8
LAY-2
  6
CONTINUOUS
 62
     2
100
AcDbLine
 10
102.75
 20
189.85
 30
0.0
 11
102.75
 21
188.35
 31
0.0
  0
LINE
  5
1AE
100
AcDbEntity
  8
LAY-2
  6
CONTINUOUS
 62
     2
100
AcDbLine
 10
102.75
 20
187.1
 30
0.0
 11
102.75
 21
185.35
 31
0.0
  0
LINE
  5
1AF
100
AcDbEntity
  8
LAY-2
  6
CONTINUOUS
 62
     2
100
AcDbLine
 10
97.8
 20
191.1
 30
0.0
 11
102.75
 21
191.1
 31
0.0
  0
LINE
  5
1B0
100
AcDbEntity
  8
LAY-2
  6
CONTINUOUS
 62
     2
100
AcDbLine
 10
96.05
 20
192.85
 30
0.0
 11
102.75
 21
192.85
 31
0.0
  0
LINE
  5
1B1
100
AcDbEntity
  8
LAY-2
  6
CONTINUOUS
 62
     2
100
AcDbLine
 10
97.8
 20
188.35
 30
0.0
 11
97.8
 21
187.1
 31
0.0
  0
LINE
  5
1B2
100
AcDbEntity
  8
LAY-2
  6
CONTINUOUS
 62
     2
100
AcDbLine
 10
96.05
 20
185.35
 30
0.0
 11
102.75
 21
185.35
 31
0.0
  0
LINE
  5
1B3
100
AcDbEntity
  8
LAY-2
  6
CONTINUOUS
 62
     2
100
AcDbLine
 10
97.8
 20
187.1
 30
0.0
 11
102.75
 21
187.1
 31
0.0
  0
LINE
  5
1B4
100
AcDbEntity
  8
LAY-2
  6
CONTINUOUS
 62
     2
100
AcDbLine
 10
105.2
 20
190.668436
 30
0.0
 11
105.2
 21
185.35
 31
0.0
  0
LINE
  5
1B5
100
AcDbEntity
  8
LAY-2
  6
CONTINUOUS
 62
     2
100
AcDbLine
 10
103.5
 20
192.85
 30
0.0
 11
105.2
 21
192.85
 31
0.0
  0
LINE
  5
1B6
100
AcDbEntity
  8
LAY-2
  6
CONTINUOUS
 62
     2
100
AcDbLine
 10
108.7
 20
192.85
 30
0.0
 11
110.4
 21
192.85
 31
0.0
  0
LINE
  5
1B7
100
AcDbEntity
  8
LAY-2
  6
CONTINUOUS
 62
     2
100
AcDbLine
 10
103.5
 20
185.35
 30
0.0
 11
105.2
 21
185.35
 31
0.0
  0
LINE
  5
1B8
100
AcDbEntity
  8
LAY-2
  6
CONTINUOUS
 62
     2
100
AcDbLine
 10
108.7
 20
185.35
 30
0.0
 11
110.4
 21
185.35
 31
0.0
  0
LINE
  5
1B9
100
AcDbEntity
  8
LAY-2
  6
CONTINUOUS
 62
     2
100
AcDbLine
 10
108.7
 20
192.85
 30
0.0
 11
108.7
 21
187.531564
 31
0.0
  0
LINE
  5
1BA
100
AcDbEntity
  8
LAY-2
  6
CONTINUOUS
 62
     2
100
AcDbLine
 10
72.2
 20
191.1
 30
0.0
 11
75.7
 21
191.1
 31
0.0
  0
LINE
  5
1BB
100
AcDbEntity
  8
LAY-2
  6
CONTINUOUS
 62
     2
100
AcDbLine
 10
77.45
 20
191.1
 30
0.0
 11
79.239799
 21
191.1
 31
0.0
  0
LINE
  5
1BC
100
AcDbEntity
  8
LAY-2
  6
CONTINUOUS
 62
     2
100
AcDbLine
 10
72.2
 20
192.85
 30
0.0
 11
80.255757
 21
192.85
 31
0.0
  0
LINE
  5
1BD
100
AcDbEntity
  8
LAY-2
  6
CONTINUOUS
 62
     2
100
AcDbLine
 10
89.144243
 20
192.85
 30
0.0
 11
95.2
 21
192.85
 31
0.0
  0
LINE
  5
1BE
100
AcDbEntity
  8
LAY-2
  6
CONTINUOUS
 62
     2
100
AcDbLine
 10
90.160201
 20
191.1
 30
0.0
 11
93.27152
 21
191.1
 31
0.0
  0
LINE
  5
1BF
100
AcDbEntity
  8
LAY-2
  6
CONTINUOUS
 62
     2
100
AcDbLine
 10
89.144243
 20
185.35
 30
0.0
 11
95.2
 21
185.35
 31
0.0
  0
LINE
  5
1C0
100
AcDbEntity
  8
LAY-2
  6
CONTINUOUS
 62
     2
100
AcDbLine
 10
91.594004
 20
187.1
 30
0.0
 11
95.2
 21
187.1
 31
0.0
  0
LINE
  5
1C1
100
AcDbEntity
  8
LAY-2
  6
CONTINUOUS
 62
     2
100
AcDbLine
 10
97.8
 20
191.1
 30
0.0
 11
97.8
 21
189.85
 31
0.0
  0
LINE
  5
1C2
100
AcDbEntity
  8
LAY-2
  6
EXLTYPE3
 62
     1
100
AcDbLine
 10
170.1
 20
146.2
 30
0.0
 11
196.086913
 21
146.2
 31
0.0
  0
ARC
  5
1C3
100
AcDbEntity
  8
LAY-2
  6
CONTINUOUS
 62
     3
100
AcDbCircle
 10
183.206002
 20
148.218187
 30
0.0
 40
5.918223
100
AcDbArc
 50
300.244006
 51
300.386958
  0
LINE
  5
1C4
100
AcDbEntity
  8
LAY-2
  6
EXLTYPE3
 62
     1
100
AcDbLine
 10
126.326913
 20
146.2
 30
0.0
 11
150.826913
 21
146.2
 31
0.0
  0
LINE
  5
1C5
100
AcDbEntity
  8
LAY-2
  6
CONTINUOUS
 62
     3
100
AcDbLine
 10
131.626913
 20
150.85
 30
0.0
 11
133.026913
 21
150.85
 31
0.0
  0
LINE
  5
1C6
100
AcDbEntity
  8
LAY-2
  6
CONTINUOUS
 62
     3
100
AcDbLine
 10
131.626913
 20
149.5
 30
0.0
 11
133.026913
 21
149.5
 31
0.0
  0
LINE
  5
1C7
100
AcDbEntity
  8
LAY-2
  6
CONTINUOUS
 62
     3
100
AcDbLine
 10
131.426913
 20
150.85
 30
0.0
 11
131.426913
 21
142.7
 31
0.0
  0
LINE
  5
1C8
100
AcDbEntity
  8
LAY-2
  6
CONTINUOUS
 62
     3
100
AcDbLine
 10
131.626913
 20
150.85
 30
0.0
 11
131.626913
 21
142.7
 31
0.0
  0
LINE
  5
1C9
100
AcDbEntity
  8
LAY-2
  6
CONTINUOUS
 62
     3
100
AcDbLine
 10
130.426913
 20
150.85
 30
0.0
 11
131.426913
 21
150.85
 31
0.0
  0
LINE
  5
1CA
100
AcDbEntity
  8
LAY-2
  6
CONTINUOUS
 62
     3
100
AcDbLine
 10
130.426913
 20
149.5
 30
0.0
 11
131.426913
 21
149.5
 31
0.0
  0
LINE
  5
1CB
100
AcDbEntity
  8
LAY-2
  6
CONTINUOUS
 62
     3
100
AcDbLine
 10
130.426913
 20
150.85
 30
0.0
 11
130.426913
 21
142.7
 31
0.0
  0
LINE
  5
1CC
100
AcDbEntity
  8
LAY-2
  6
CONTINUOUS
 62
     3
100
AcDbLine
 10
128.426913
 20
148.418904
 30
0.0
 11
128.426913
 21
143.981096
 31
0.0
  0
LINE
  5
1CD
100
AcDbEntity
  8
LAY-2
  6
CONTINUOUS
 62
     3
100
AcDbLine
 10
131.626913
 20
145.526862
 30
0.0
 11
133.026913
 21
145.526862
 31
0.0
  0
LINE
  5
1CE
100
AcDbEntity
  8
LAY-2
  6
CONTINUOUS
 62
     3
100
AcDbLine
 10
131.626913
 20
143.3
 30
0.0
 11
133.026913
 21
143.3
 31
0.0
  0
LINE
  5
1CF
100
AcDbEntity
  8
LAY-2
  6
CONTINUOUS
 62
     3
100
AcDbLine
 10
131.626913
 20
142.7
 30
0.0
 11
133.026913
 21
142.7
 31
0.0
  0
LINE
  5
1D0
100
AcDbEntity
  8
LAY-2
  6
CONTINUOUS
 62
     3
100
AcDbLine
 10
131.426913
 20
149.1
 30
0.0
 11
131.626913
 21
149.1
 31
0.0
  0
LINE
  5
1D1
100
AcDbEntity
  8
LAY-2
  6
CONTINUOUS
 62
     3
100
AcDbLine
 10
131.426913
 20
143.3
 30
0.0
 11
131.626913
 21
143.3
 31
0.0
  0
LINE
  5
1D2
100
AcDbEntity
  8
LAY-2
  6
CONTINUOUS
 62
     3
100
AcDbLine
 10
130.426913
 20
145.526862
 30
0.0
 11
131.426913
 21
145.526862
 31
0.0
  0
LINE
  5
1D3
100
AcDbEntity
  8
LAY-2
  6
CONTINUOUS
 62
     3
100
AcDbLine
 10
130.426913
 20
143.3
 30
0.0
 11
131.426913
 21
143.3
 31
0.0
  0
LINE
  5
1D4
100
AcDbEntity
  8
LAY-2
  6
CONTINUOUS
 62
     3
100
AcDbLine
 10
130.426913
 20
142.7
 30
0.0
 11
131.426913
 21
142.7
 31
0.0
  0
LINE
  5
1D5
100
AcDbEntity
  8
LAY-2
  6
CONTINUOUS
 62
     3
100
AcDbLine
 10
128.426913
 20
148.418904
 30
0.0
 11
130.426913
 21
148.418904
 31
0.0
  0
LINE
  5
1D6
100
AcDbEntity
  8
LAY-2
  6
CONTINUOUS
 62
     3
100
AcDbLine
 10
128.426913
 20
147.769002
 30
0.0
 11
130.426913
 21
147.769002
 31
0.0
  0
LINE
  5
1D7
100
AcDbEntity
  8
LAY-2
  6
CONTINUOUS
 62
     3
100
AcDbLine
 10
128.426913
 20
144.630998
 30
0.0
 11
130.426913
 21
144.630998
 31
0.0
  0
LINE
  5
1D8
100
AcDbEntity
  8
LAY-2
  6
CONTINUOUS
 62
     3
100
AcDbLine
 10
128.426913
 20
143.981096
 30
0.0
 11
130.426913
 21
143.981096
 31
0.0
  0
LINE
  5
1D9
100
AcDbEntity
  8
LAY-2
  6
CONTINUOUS
 62
     3
100
AcDbLine
 10
128.426913
 20
146.2
 30
0.0
 11
130.426913
 21
146.2
 31
0.0
  0
LINE
  5
1DA
100
AcDbEntity
  8
LAY-2
  6
CONTINUOUS
 62
     3
100
AcDbLine
 10
133.026913
 20
150.85
 30
0.0
 11
133.026913
 21
142.7
 31
0.0
  0
LINE
  5
1DB
100
AcDbEntity
  8
LAY-2
  6
CONTINUOUS
 62
     3
100
AcDbLine
 10
145.226913
 20
150.85
 30
0.0
 11
143.826913
 21
150.85
 31
0.0
  0
LINE
  5
1DC
100
AcDbEntity
  8
LAY-2
  6
CONTINUOUS
 62
     3
100
AcDbLine
 10
145.226913
 20
149.5
 30
0.0
 11
143.826913
 21
149.5
 31
0.0
  0
LINE
  5
1DD
100
AcDbEntity
  8
LAY-2
  6
CONTINUOUS
 62
     3
100
AcDbLine
 10
145.426913
 20
150.85
 30
0.0
 11
145.426913
 21
142.7
 31
0.0
  0
LINE
  5
1DE
100
AcDbEntity
  8
LAY-2
  6
CONTINUOUS
 62
     3
100
AcDbLine
 10
145.226913
 20
150.85
 30
0.0
 11
145.226913
 21
142.7
 31
0.0
  0
LINE
  5
1DF
100
AcDbEntity
  8
LAY-2
  6
CONTINUOUS
 62
     3
100
AcDbLine
 10
143.826913
 20
150.85
 30
0.0
 11
143.826913
 21
142.7
 31
0.0
  0
LINE
  5
1E0
100
AcDbEntity
  8
LAY-2
  6
CONTINUOUS
 62
     3
100
AcDbLine
 10
146.426913
 20
150.85
 30
0.0
 11
145.426913
 21
150.85
 31
0.0
  0
LINE
  5
1E1
100
AcDbEntity
  8
LAY-2
  6
CONTINUOUS
 62
     3
100
AcDbLine
 10
146.426913
 20
149.5
 30
0.0
 11
145.426913
 21
149.5
 31
0.0
  0
LINE
  5
1E2
100
AcDbEntity
  8
LAY-2
  6
CONTINUOUS
 62
     3
100
AcDbLine
 10
146.426913
 20
150.85
 30
0.0
 11
146.426913
 21
142.7
 31
0.0
  0
LINE
  5
1E3
100
AcDbEntity
  8
LAY-2
  6
CONTINUOUS
 62
     3
100
AcDbLine
 10
148.426913
 20
148.418904
 30
0.0
 11
148.426913
 21
143.981096
 31
0.0
  0
LINE
  5
1E4
100
AcDbEntity
  8
LAY-2
  6
CONTINUOUS
 62
     3
100
AcDbLine
 10
145.226913
 20
145.526862
 30
0.0
 11
143.826913
 21
145.526862
 31
0.0
  0
LINE
  5
1E5
100
AcDbEntity
  8
LAY-2
  6
CONTINUOUS
 62
     3
100
AcDbLine
 10
145.226913
 20
143.3
 30
0.0
 11
143.826913
 21
143.3
 31
0.0
  0
LINE
  5
1E6
100
AcDbEntity
  8
LAY-2
  6
CONTINUOUS
 62
     3
100
AcDbLine
 10
145.226913
 20
142.7
 30
0.0
 11
143.826913
 21
142.7
 31
0.0
  0
LINE
  5
1E7
100
AcDbEntity
  8
LAY-2
  6
CONTINUOUS
 62
     3
100
AcDbLine
 10
145.426913
 20
149.1
 30
0.0
 11
145.226913
 21
149.1
 31
0.0
  0
LINE
  5
1E8
100
AcDbEntity
  8
LAY-2
  6
CONTINUOUS
 62
     3
100
AcDbLine
 10
145.426913
 20
143.3
 30
0.0
 11
145.226913
 21
143.3
 31
0.0
  0
LINE
  5
1E9
100
AcDbEntity
  8
LAY-2
  6
CONTINUOUS
 62
     3
100
AcDbLine
 10
146.426913
 20
145.526862
 30
0.0
 11
145.426913
 21
145.526862
 31
0.0
  0
LINE
  5
1EA
100
AcDbEntity
  8
LAY-2
  6
CONTINUOUS
 62
     3
100
AcDbLine
 10
146.426913
 20
143.3
 30
0.0
 11
145.426913
 21
143.3
 31
0.0
  0
LINE
  5
1EB
100
AcDbEntity
  8
LAY-2
  6
CONTINUOUS
 62
     3
100
AcDbLine
 10
146.426913
 20
142.7
 30
0.0
 11
145.426913
 21
142.7
 31
0.0
  0
LINE
  5
1EC
100
AcDbEntity
  8
LAY-2
  6
CONTINUOUS
 62
     3
100
AcDbLine
 10
148.426913
 20
148.418904
 30
0.0
 11
146.426913
 21
148.418904
 31
0.0
  0
LINE
  5
1ED
100
AcDbEntity
  8
LAY-2
  6
CONTINUOUS
 62
     3
100
AcDbLine
 10
148.426913
 20
147.769002
 30
0.0
 11
146.426913
 21
147.769002
 31
0.0
  0
LINE
  5
1EE
100
AcDbEntity
  8
LAY-2
  6
CONTINUOUS
 62
     3
100
AcDbLine
 10
148.426913
 20
144.630998
 30
0.0
 11
146.426913
 21
144.630998
 31
0.0
  0
LINE
  5
1EF
100
AcDbEntity
  8
LAY-2
  6
CONTINUOUS
 62
     3
100
AcDbLine
 10
148.426913
 20
143.981096
 30
0.0
 11
146.426913
 21
143.981096
 31
0.0
  0
LINE
  5
1F0
100
AcDbEntity
  8
LAY-2
  6
CONTINUOUS
 62
     3
100
AcDbLine
 10
148.426913
 20
146.2
 30
0.0
 11
146.426913
 21
146.2
 31
0.0
  0
LINE
  5
1F1
100
AcDbEntity
  8
LAY-2
  6
CONTINUOUS
 62
     3
100
AcDbLine
 10
177.486913
 20
148.9
 30
0.0
 11
179.521194
 21
148.9
 31
0.0
  0
ARC
  5
1F2
100
AcDbEntity
  8
LAY-2
  6
CONTINUOUS
 62
     3
100
AcDbCircle
 10
179.521194
 20
152.9
 30
0.0
 40
4.0
100
AcDbArc
 50
270.0
 51
307.658462
  0
LINE
  5
1F3
100
AcDbEntity
  8
LAY-2
  6
CONTINUOUS
 62
     3
100
AcDbLine
 10
188.886913
 20
148.9
 30
0.0
 11
186.852633
 21
148.9
 31
0.0
  0
ARC
  5
1F4
100
AcDbEntity
  8
LAY-2
  6
CONTINUOUS
 62
     3
100
AcDbCircle
 10
183.186913
 20
148.15
 30
0.0
 40
2.0
100
AcDbArc
 50
52.341538
 51
127.658462
  0
ARC
  5
1F5
100
AcDbEntity
  8
LAY-2
  6
CONTINUOUS
 62
     3
100
AcDbCircle
 10
186.852633
 20
152.9
 30
0.0
 40
4.0
100
AcDbArc
 50
232.341538
 51
270.0
  0
LINE
  5
1F6
100
AcDbEntity
  8
LAY-2
  6
CONTINUOUS
 62
     3
100
AcDbLine
 10
177.486913
 20
143.5
 30
0.0
 11
179.521194
 21
143.5
 31
0.0
  0
ARC
  5
1F7
100
AcDbEntity
  8
LAY-2
  6
CONTINUOUS
 62
     3
100
AcDbCircle
 10
179.521194
 20
139.5
 30
0.0
 40
4.0
100
AcDbArc
 50
52.341538
 51
90.0
  0
LINE
  5
1F8
100
AcDbEntity
  8
LAY-2
  6
CONTINUOUS
 62
     3
100
AcDbLine
 10
188.886913
 20
143.5
 30
0.0
 11
186.852633
 21
143.5
 31
0.0
  0
ARC
  5
1F9
100
AcDbEntity
  8
LAY-2
  6
CONTINUOUS
 62
     3
100
AcDbCircle
 10
183.186913
 20
144.25
 30
0.0
 40
2.0
100
AcDbArc
 50
232.341538
 51
307.658462
  0
ARC
  5
1FA
100
AcDbEntity
  8
LAY-2
  6
CONTINUOUS
 62
     3
100
AcDbCircle
 10
186.852633
 20
139.5
 30
0.0
 40
4.0
100
AcDbArc
 50
90.0
 51
127.658462
  0
LINE
  5
1FB
100
AcDbEntity
  8
LAY-2
  6
CONTINUOUS
 62
     3
100
AcDbLine
 10
133.026913
 20
148.2
 30
0.0
 11
135.206762
 21
148.2
 31
0.0
  0
ARC
  5
1FC
100
AcDbEntity
  8
LAY-2
  6
CONTINUOUS
 62
     3
100
AcDbCircle
 10
135.206762
 20
151.2
 30
0.0
 40
3.0
100
AcDbArc
 50
270.0
 51
310.093008
  0
ARC
  5
1FD
100
AcDbEntity
  8
LAY-2
  6
CONTINUOUS
 62
     3
100
AcDbCircle
 10
141.647065
 20
151.2
 30
0.0
 40
3.0
100
AcDbArc
 50
229.906992
 51
270.0
  0
LINE
  5
1FE
100
AcDbEntity
  8
LAY-2
  6
CONTINUOUS
 62
     3
100
AcDbLine
 10
143.826913
 20
148.2
 30
0.0
 11
141.647065
 21
148.2
 31
0.0
  0
ARC
  5
1FF
100
AcDbEntity
  8
LAY-2
  6
CONTINUOUS
 62
     3
100
AcDbCircle
 10
138.426913
 20
147.375
 30
0.0
 40
2.0
100
AcDbArc
 50
49.906992
 51
130.093008
  0
LINE
  5
200
100
AcDbEntity
  8
LAY-2
  6
CONTINUOUS
 62
     3
100
AcDbLine
 10
133.026913
 20
144.2
 30
0.0
 11
135.206762
 21
144.2
 31
0.0
  0
ARC
  5
201
100
AcDbEntity
  8
LAY-2
  6
CONTINUOUS
 62
     3
100
AcDbCircle
 10
135.206762
 20
141.2
 30
0.0
 40
3.0
100
AcDbArc
 50
49.906992
 51
90.0
  0
ARC
  5
202
100
AcDbEntity
  8
LAY-2
  6
CONTINUOUS
 62
     3
100
AcDbCircle
 10
141.647065
 20
141.2
 30
0.0
 40
3.0
100
AcDbArc
 50
90.0
 51
130.093008
  0
LINE
  5
203
100
AcDbEntity
  8
LAY-2
  6
CONTINUOUS
 62
     3
100
AcDbLine
 10
143.826913
 20
144.2
 30
0.0
 11
141.647065
 21
144.2
 31
0.0
  0
ARC
  5
204
100
AcDbEntity
  8
LAY-2
  6
CONTINUOUS
 62
     3
100
AcDbCircle
 10
138.426913
 20
145.025
 30
0.0
 40
2.0
100
AcDbArc
 50
229.906992
 51
310.093008
  0
LINE
  5
205
100
AcDbEntity
  8
LAY-2
  6
EXLTYPE3
 62
     1
100
AcDbLine
 10
81.28258
 20
146.2
 30
0.0
 11
105.78258
 21
146.2
 31
0.0
  0
LINE
  5
206
100
AcDbEntity
  8
LAY-2
  6
CONTINUOUS
 62
     3
100
AcDbLine
 10
86.58258
 20
150.85
 30
0.0
 11
87.98258
 21
150.85
 31
0.0
  0
LINE
  5
207
100
AcDbEntity
  8
LAY-2
  6
CONTINUOUS
 62
     3
100
AcDbLine
 10
86.58258
 20
149.5
 30
0.0
 11
87.98258
 21
149.5
 31
0.0
  0
LINE
  5
208
100
AcDbEntity
  8
LAY-2
  6
CONTINUOUS
 62
     3
100
AcDbLine
 10
86.38258
 20
150.85
 30
0.0
 11
86.38258
 21
142.7
 31
0.0
  0
LINE
  5
209
100
AcDbEntity
  8
LAY-2
  6
CONTINUOUS
 62
     3
100
AcDbLine
 10
86.58258
 20
150.85
 30
0.0
 11
86.58258
 21
142.7
 31
0.0
  0
LINE
  5
20A
100
AcDbEntity
  8
LAY-2
  6
CONTINUOUS
 62
     3
100
AcDbLine
 10
85.38258
 20
150.85
 30
0.0
 11
86.38258
 21
150.85
 31
0.0
  0
LINE
  5
20B
100
AcDbEntity
  8
LAY-2
  6
CONTINUOUS
 62
     3
100
AcDbLine
 10
85.38258
 20
149.5
 30
0.0
 11
86.38258
 21
149.5
 31
0.0
  0
LINE
  5
20C
100
AcDbEntity
  8
LAY-2
  6
CONTINUOUS
 62
     3
100
AcDbLine
 10
85.38258
 20
150.85
 30
0.0
 11
85.38258
 21
142.7
 31
0.0
  0
LINE
  5
20D
100
AcDbEntity
  8
LAY-2
  6
CONTINUOUS
 62
     3
100
AcDbLine
 10
83.38258
 20
148.418904
 30
0.0
 11
83.38258
 21
143.981096
 31
0.0
  0
LINE
  5
20E
100
AcDbEntity
  8
LAY-2
  6
CONTINUOUS
 62
     3
100
AcDbLine
 10
86.58258
 20
145.526862
 30
0.0
 11
87.98258
 21
145.526862
 31
0.0
  0
LINE
  5
20F
100
AcDbEntity
  8
LAY-2
  6
CONTINUOUS
 62
     3
100
AcDbLine
 10
86.58258
 20
143.3
 30
0.0
 11
87.98258
 21
143.3
 31
0.0
  0
LINE
  5
210
100
AcDbEntity
  8
LAY-2
  6
CONTINUOUS
 62
     3
100
AcDbLine
 10
86.58258
 20
142.7
 30
0.0
 11
87.98258
 21
142.7
 31
0.0
  0
LINE
  5
211
100
AcDbEntity
  8
LAY-2
  6
CONTINUOUS
 62
     3
100
AcDbLine
 10
86.38258
 20
149.1
 30
0.0
 11
86.58258
 21
149.1
 31
0.0
  0
LINE
  5
212
100
AcDbEntity
  8
LAY-2
  6
CONTINUOUS
 62
     3
100
AcDbLine
 10
86.38258
 20
143.3
 30
0.0
 11
86.58258
 21
143.3
 31
0.0
  0
LINE
  5
213
100
AcDbEntity
  8
LAY-2
  6
CONTINUOUS
 62
     3
100
AcDbLine
 10
85.38258
 20
145.526862
 30
0.0
 11
86.38258
 21
145.526862
 31
0.0
  0
LINE
  5
214
100
AcDbEntity
  8
LAY-2
  6
CONTINUOUS
 62
     3
100
AcDbLine
 10
85.38258
 20
143.3
 30
0.0
 11
86.38258
 21
143.3
 31
0.0
  0
LINE
  5
215
100
AcDbEntity
  8
LAY-2
  6
CONTINUOUS
 62
     3
100
AcDbLine
 10
85.38258
 20
142.7
 30
0.0
 11
86.38258
 21
142.7
 31
0.0
  0
LINE
  5
216
100
AcDbEntity
  8
LAY-2
  6
CONTINUOUS
 62
     3
100
AcDbLine
 10
83.38258
 20
148.418904
 30
0.0
 11
85.38258
 21
148.418904
 31
0.0
  0
LINE
  5
217
100
AcDbEntity
  8
LAY-2
  6
CONTINUOUS
 62
     3
100
AcDbLine
 10
83.38258
 20
147.769002
 30
0.0
 11
85.38258
 21
147.769002
 31
0.0
  0
LINE
  5
218
100
AcDbEntity
  8
LAY-2
  6
CONTINUOUS
 62
     3
100
AcDbLine
 10
83.38258
 20
144.630998
 30
0.0
 11
85.38258
 21
144.630998
 31
0.0
  0
LINE
  5
219
100
AcDbEntity
  8
LAY-2
  6
CONTINUOUS
 62
     3
100
AcDbLine
 10
83.38258
 20
143.981096
 30
0.0
 11
85.38258
 21
143.981096
 31
0.0
  0
LINE
  5
21A
100
AcDbEntity
  8
LAY-2
  6
CONTINUOUS
 62
     3
100
AcDbLine
 10
83.38258
 20
146.2
 30
0.0
 11
85.38258
 21
146.2
 31
0.0
  0
LINE
  5
21B
100
AcDbEntity
  8
LAY-2
  6
CONTINUOUS
 62
     3
100
AcDbLine
 10
87.98258
 20
150.85
 30
0.0
 11
87.98258
 21
142.7
 31
0.0
  0
LINE
  5
21C
100
AcDbEntity
  8
LAY-2
  6
CONTINUOUS
 62
     3
100
AcDbLine
 10
100.18258
 20
150.85
 30
0.0
 11
98.78258
 21
150.85
 31
0.0
  0
LINE
  5
21D
100
AcDbEntity
  8
LAY-2
  6
CONTINUOUS
 62
     3
100
AcDbLine
 10
100.18258
 20
149.5
 30
0.0
 11
98.78258
 21
149.5
 31
0.0
  0
LINE
  5
21E
100
AcDbEntity
  8
LAY-2
  6
CONTINUOUS
 62
     3
100
AcDbLine
 10
100.38258
 20
150.85
 30
0.0
 11
100.38258
 21
142.7
 31
0.0
  0
LINE
  5
21F
100
AcDbEntity
  8
LAY-2
  6
CONTINUOUS
 62
     3
100
AcDbLine
 10
100.18258
 20
150.85
 30
0.0
 11
100.18258
 21
142.7
 31
0.0
  0
LINE
  5
220
100
AcDbEntity
  8
LAY-2
  6
CONTINUOUS
 62
     3
100
AcDbLine
 10
98.78258
 20
150.85
 30
0.0
 11
98.78258
 21
142.7
 31
0.0
  0
LINE
  5
221
100
AcDbEntity
  8
LAY-2
  6
CONTINUOUS
 62
     3
100
AcDbLine
 10
101.38258
 20
150.85
 30
0.0
 11
100.38258
 21
150.85
 31
0.0
  0
LINE
  5
222
100
AcDbEntity
  8
LAY-2
  6
CONTINUOUS
 62
     3
100
AcDbLine
 10
101.38258
 20
149.5
 30
0.0
 11
100.38258
 21
149.5
 31
0.0
  0
LINE
  5
223
100
AcDbEntity
  8
LAY-2
  6
CONTINUOUS
 62
     3
100
AcDbLine
 10
101.38258
 20
150.85
 30
0.0
 11
101.38258
 21
142.7
 31
0.0
  0
LINE
  5
224
100
AcDbEntity
  8
LAY-2
  6
CONTINUOUS
 62
     3
100
AcDbLine
 10
103.38258
 20
148.418904
 30
0.0
 11
103.38258
 21
143.981096
 31
0.0
  0
LINE
  5
225
100
AcDbEntity
  8
LAY-2
  6
CONTINUOUS
 62
     3
100
AcDbLine
 10
100.18258
 20
145.526862
 30
0.0
 11
98.78258
 21
145.526862
 31
0.0
  0
LINE
  5
226
100
AcDbEntity
  8
LAY-2
  6
CONTINUOUS
 62
     3
100
AcDbLine
 10
100.18258
 20
143.3
 30
0.0
 11
98.78258
 21
143.3
 31
0.0
  0
LINE
  5
227
100
AcDbEntity
  8
LAY-2
  6
CONTINUOUS
 62
     3
100
AcDbLine
 10
100.18258
 20
142.7
 30
0.0
 11
98.78258
 21
142.7
 31
0.0
  0
LINE
  5
228
100
AcDbEntity
  8
LAY-2
  6
CONTINUOUS
 62
     3
100
AcDbLine
 10
100.38258
 20
149.1
 30
0.0
 11
100.18258
 21
149.1
 31
0.0
  0
LINE
  5
229
100
AcDbEntity
  8
LAY-2
  6
CONTINUOUS
 62
     3
100
AcDbLine
 10
100.38258
 20
143.3
 30
0.0
 11
100.18258
 21
143.3
 31
0.0
  0
LINE
  5
22A
100
AcDbEntity
  8
LAY-2
  6
CONTINUOUS
 62
     3
100
AcDbLine
 10
101.38258
 20
145.526862
 30
0.0
 11
100.38258
 21
145.526862
 31
0.0
  0
LINE
  5
22B
100
AcDbEntity
  8
LAY-2
  6
CONTINUOUS
 62
     3
100
AcDbLine
 10
101.38258
 20
143.3
 30
0.0
 11
100.38258
 21
143.3
 31
0.0
  0
LINE
  5
22C
100
AcDbEntity
  8
LAY-2
  6
CONTINUOUS
 62
     3
100
AcDbLine
 10
101.38258
 20
142.7
 30
0.0
 11
100.38258
 21
142.7
 31
0.0
  0
LINE
  5
22D
100
AcDbEntity
  8
LAY-2
  6
CONTINUOUS
 62
     3
100
AcDbLine
 10
103.38258
 20
148.418904
 30
0.0
 11
101.38258
 21
148.418904
 31
0.0
  0
LINE
  5
22E
100
AcDbEntity
  8
LAY-2
  6
CONTINUOUS
 62
     3
100
AcDbLine
 10
103.38258
 20
147.769002
 30
0.0
 11
101.38258
 21
147.769002
 31
0.0
  0
LINE
  5
22F
100
AcDbEntity
  8
LAY-2
  6
CONTINUOUS
 62
     3
100
AcDbLine
 10
103.38258
 20
144.630998
 30
0.0
 11
101.38258
 21
144.630998
 31
0.0
  0
LINE
  5
230
100
AcDbEntity
  8
LAY-2
  6
CONTINUOUS
 62
     3
100
AcDbLine
 10
103.38258
 20
143.981096
 30
0.0
 11
101.38258
 21
143.981096
 31
0.0
  0
LINE
  5
231
100
AcDbEntity
  8
LAY-2
  6
CONTINUOUS
 62
     3
100
AcDbLine
 10
103.38258
 20
146.2
 30
0.0
 11
101.38258
 21
146.2
 31
0.0
  0
LINE
  5
232
100
AcDbEntity
  8
LAY-2
  6
CONTINUOUS
 62
     3
100
AcDbLine
 10
87.98258
 20
148.2
 30
0.0
 11
90.162429
 21
148.2
 31
0.0
  0
ARC
  5
233
100
AcDbEntity
  8
LAY-2
  6
CONTINUOUS
 62
     3
100
AcDbCircle
 10
90.162429
 20
151.2
 30
0.0
 40
3.0
100
AcDbArc
 50
270.0
 51
310.093008
  0
ARC
  5
234
100
AcDbEntity
  8
LAY-2
  6
CONTINUOUS
 62
     3
100
AcDbCircle
 10
96.602732
 20
151.2
 30
0.0
 40
3.0
100
AcDbArc
 50
229.906992
 51
270.0
  0
LINE
  5
235
100
AcDbEntity
  8
LAY-2
  6
CONTINUOUS
 62
     3
100
AcDbLine
 10
98.78258
 20
148.2
 30
0.0
 11
96.602732
 21
148.2
 31
0.0
  0
ARC
  5
236
100
AcDbEntity
  8
LAY-2
  6
CONTINUOUS
 62
     3
100
AcDbCircle
 10
93.38258
 20
147.375
 30
0.0
 40
2.0
100
AcDbArc
 50
49.906992
 51
130.093008
  0
LINE
  5
237
100
AcDbEntity
  8
LAY-2
  6
CONTINUOUS
 62
     3
100
AcDbLine
 10
87.98258
 20
144.2
 30
0.0
 11
90.162429
 21
144.2
 31
0.0
  0
ARC
  5
238
100
AcDbEntity
  8
LAY-2
  6
CONTINUOUS
 62
     3
100
AcDbCircle
 10
90.162429
 20
141.2
 30
0.0
 40
3.0
100
AcDbArc
 50
49.906992
 51
90.0
  0
ARC
  5
239
100
AcDbEntity
  8
LAY-2
  6
CONTINUOUS
 62
     3
100
AcDbCircle
 10
96.602732
 20
141.2
 30
0.0
 40
3.0
100
AcDbArc
 50
90.0
 51
130.093008
  0
LINE
  5
23A
100
AcDbEntity
  8
LAY-2
  6
CONTINUOUS
 62
     3
100
AcDbLine
 10
98.78258
 20
144.2
 30
0.0
 11
96.602732
 21
144.2
 31
0.0
  0
ARC
  5
23B
100
AcDbEntity
  8
LAY-2
  6
CONTINUOUS
 62
     3
100
AcDbCircle
 10
93.38258
 20
145.025
 30
0.0
 40
2.0
100
AcDbArc
 50
229.906992
 51
310.093008
  0
LINE
  5
23C
100
AcDbEntity
  8
LAY-2
  6
EXLTYPE3
 62
     1
100
AcDbLine
 10
36.58258
 20
146.2
 30
0.0
 11
61.08258
 21
146.2
 31
0.0
  0
LINE
  5
23D
100
AcDbEntity
  8
LAY-2
  6
CONTINUOUS
 62
     3
100
AcDbLine
 10
41.88258
 20
150.85
 30
0.0
 11
43.28258
 21
150.85
 31
0.0
  0
LINE
  5
23E
100
AcDbEntity
  8
LAY-2
  6
CONTINUOUS
 62
     3
100
AcDbLine
 10
41.88258
 20
149.5
 30
0.0
 11
43.28258
 21
149.5
 31
0.0
  0
LINE
  5
23F
100
AcDbEntity
  8
LAY-2
  6
CONTINUOUS
 62
     3
100
AcDbLine
 10
41.68258
 20
150.85
 30
0.0
 11
41.68258
 21
142.7
 31
0.0
  0
LINE
  5
240
100
AcDbEntity
  8
LAY-2
  6
CONTINUOUS
 62
     3
100
AcDbLine
 10
41.88258
 20
150.85
 30
0.0
 11
41.88258
 21
142.7
 31
0.0
  0
LINE
  5
241
100
AcDbEntity
  8
LAY-2
  6
CONTINUOUS
 62
     3
100
AcDbLine
 10
40.68258
 20
150.85
 30
0.0
 11
41.68258
 21
150.85
 31
0.0
  0
LINE
  5
242
100
AcDbEntity
  8
LAY-2
  6
CONTINUOUS
 62
     3
100
AcDbLine
 10
40.68258
 20
149.5
 30
0.0
 11
41.68258
 21
149.5
 31
0.0
  0
LINE
  5
243
100
AcDbEntity
  8
LAY-2
  6
CONTINUOUS
 62
     3
100
AcDbLine
 10
40.68258
 20
150.85
 30
0.0
 11
40.68258
 21
142.7
 31
0.0
  0
LINE
  5
244
100
AcDbEntity
  8
LAY-2
  6
CONTINUOUS
 62
     3
100
AcDbLine
 10
38.68258
 20
148.418904
 30
0.0
 11
38.68258
 21
143.981096
 31
0.0
  0
LINE
  5
245
100
AcDbEntity
  8
LAY-2
  6
CONTINUOUS
 62
     3
100
AcDbLine
 10
41.88258
 20
145.526862
 30
0.0
 11
43.28258
 21
145.526862
 31
0.0
  0
LINE
  5
246
100
AcDbEntity
  8
LAY-2
  6
CONTINUOUS
 62
     3
100
AcDbLine
 10
41.88258
 20
143.3
 30
0.0
 11
43.28258
 21
143.3
 31
0.0
  0
LINE
  5
247
100
AcDbEntity
  8
LAY-2
  6
CONTINUOUS
 62
     3
100
AcDbLine
 10
41.88258
 20
142.7
 30
0.0
 11
43.28258
 21
142.7
 31
0.0
  0
LINE
  5
248
100
AcDbEntity
  8
LAY-2
  6
CONTINUOUS
 62
     3
100
AcDbLine
 10
41.68258
 20
149.1
 30
0.0
 11
41.88258
 21
149.1
 31
0.0
  0
LINE
  5
249
100
AcDbEntity
  8
LAY-2
  6
CONTINUOUS
 62
     3
100
AcDbLine
 10
41.68258
 20
143.3
 30
0.0
 11
41.88258
 21
143.3
 31
0.0
  0
LINE
  5
24A
100
AcDbEntity
  8
LAY-2
  6
CONTINUOUS
 62
     3
100
AcDbLine
 10
40.68258
 20
145.526862
 30
0.0
 11
41.68258
 21
145.526862
 31
0.0
  0
LINE
  5
24B
100
AcDbEntity
  8
LAY-2
  6
CONTINUOUS
 62
     3
100
AcDbLine
 10
40.68258
 20
143.3
 30
0.0
 11
41.68258
 21
143.3
 31
0.0
  0
LINE
  5
24C
100
AcDbEntity
  8
LAY-2
  6
CONTINUOUS
 62
     3
100
AcDbLine
 10
40.68258
 20
142.7
 30
0.0
 11
41.68258
 21
142.7
 31
0.0
  0
LINE
  5
24D
100
AcDbEntity
  8
LAY-2
  6
CONTINUOUS
 62
     3
100
AcDbLine
 10
38.68258
 20
148.418904
 30
0.0
 11
40.68258
 21
148.418904
 31
0.0
  0
LINE
  5
24E
100
AcDbEntity
  8
LAY-2
  6
CONTINUOUS
 62
     3
100
AcDbLine
 10
38.68258
 20
147.769002
 30
0.0
 11
40.68258
 21
147.769002
 31
0.0
  0
LINE
  5
24F
100
AcDbEntity
  8
LAY-2
  6
CONTINUOUS
 62
     3
100
AcDbLine
 10
38.68258
 20
144.630998
 30
0.0
 11
40.68258
 21
144.630998
 31
0.0
  0
LINE
  5
250
100
AcDbEntity
  8
LAY-2
  6
CONTINUOUS
 62
     3
100
AcDbLine
 10
38.68258
 20
143.981096
 30
0.0
 11
40.68258
 21
143.981096
 31
0.0
  0
LINE
  5
251
100
AcDbEntity
  8
LAY-2
  6
CONTINUOUS
 62
     3
100
AcDbLine
 10
38.68258
 20
146.2
 30
0.0
 11
40.68258
 21
146.2
 31
0.0
  0
LINE
  5
252
100
AcDbEntity
  8
LAY-2
  6
CONTINUOUS
 62
     3
100
AcDbLine
 10
43.28258
 20
150.85
 30
0.0
 11
43.28258
 21
142.7
 31
0.0
  0
LINE
  5
253
100
AcDbEntity
  8
LAY-2
  6
CONTINUOUS
 62
     3
100
AcDbLine
 10
55.48258
 20
150.85
 30
0.0
 11
54.08258
 21
150.85
 31
0.0
  0
LINE
  5
254
100
AcDbEntity
  8
LAY-2
  6
CONTINUOUS
 62
     3
100
AcDbLine
 10
55.48258
 20
149.5
 30
0.0
 11
54.08258
 21
149.5
 31
0.0
  0
LINE
  5
255
100
AcDbEntity
  8
LAY-2
  6
CONTINUOUS
 62
     3
100
AcDbLine
 10
55.68258
 20
150.85
 30
0.0
 11
55.68258
 21
142.7
 31
0.0
  0
LINE
  5
256
100
AcDbEntity
  8
LAY-2
  6
CONTINUOUS
 62
     3
100
AcDbLine
 10
55.48258
 20
150.85
 30
0.0
 11
55.48258
 21
142.7
 31
0.0
  0
LINE
  5
257
100
AcDbEntity
  8
LAY-2
  6
CONTINUOUS
 62
     3
100
AcDbLine
 10
54.08258
 20
150.85
 30
0.0
 11
54.08258
 21
142.7
 31
0.0
  0
LINE
  5
258
100
AcDbEntity
  8
LAY-2
  6
CONTINUOUS
 62
     3
100
AcDbLine
 10
56.68258
 20
150.85
 30
0.0
 11
55.68258
 21
150.85
 31
0.0
  0
LINE
  5
259
100
AcDbEntity
  8
LAY-2
  6
CONTINUOUS
 62
     3
100
AcDbLine
 10
56.68258
 20
149.5
 30
0.0
 11
55.68258
 21
149.5
 31
0.0
  0
LINE
  5
25A
100
AcDbEntity
  8
LAY-2
  6
CONTINUOUS
 62
     3
100
AcDbLine
 10
56.68258
 20
150.85
 30
0.0
 11
56.68258
 21
142.7
 31
0.0
  0
LINE
  5
25B
100
AcDbEntity
  8
LAY-2
  6
CONTINUOUS
 62
     3
100
AcDbLine
 10
58.68258
 20
148.418904
 30
0.0
 11
58.68258
 21
143.981096
 31
0.0
  0
LINE
  5
25C
100
AcDbEntity
  8
LAY-2
  6
CONTINUOUS
 62
     3
100
AcDbLine
 10
55.48258
 20
145.526862
 30
0.0
 11
54.08258
 21
145.526862
 31
0.0
  0
LINE
  5
25D
100
AcDbEntity
  8
LAY-2
  6
CONTINUOUS
 62
     3
100
AcDbLine
 10
55.48258
 20
143.3
 30
0.0
 11
54.08258
 21
143.3
 31
0.0
  0
LINE
  5
25E
100
AcDbEntity
  8
LAY-2
  6
CONTINUOUS
 62
     3
100
AcDbLine
 10
55.48258
 20
142.7
 30
0.0
 11
54.08258
 21
142.7
 31
0.0
  0
LINE
  5
25F
100
AcDbEntity
  8
LAY-2
  6
CONTINUOUS
 62
     3
100
AcDbLine
 10
55.68258
 20
149.1
 30
0.0
 11
55.48258
 21
149.1
 31
0.0
  0
LINE
  5
260
100
AcDbEntity
  8
LAY-2
  6
CONTINUOUS
 62
     3
100
AcDbLine
 10
55.68258
 20
143.3
 30
0.0
 11
55.48258
 21
143.3
 31
0.0
  0
LINE
  5
261
100
AcDbEntity
  8
LAY-2
  6
CONTINUOUS
 62
     3
100
AcDbLine
 10
56.68258
 20
145.526862
 30
0.0
 11
55.68258
 21
145.526862
 31
0.0
  0
LINE
  5
262
100
AcDbEntity
  8
LAY-2
  6
CONTINUOUS
 62
     3
100
AcDbLine
 10
56.68258
 20
143.3
 30
0.0
 11
55.68258
 21
143.3
 31
0.0
  0
LINE
  5
263
100
AcDbEntity
  8
LAY-2
  6
CONTINUOUS
 62
     3
100
AcDbLine
 10
56.68258
 20
142.7
 30
0.0
 11
55.68258
 21
142.7
 31
0.0
  0
LINE
  5
264
100
AcDbEntity
  8
LAY-2
  6
CONTINUOUS
 62
     3
100
AcDbLine
 10
58.68258
 20
148.418904
 30
0.0
 11
56.68258
 21
148.418904
 31
0.0
  0
LINE
  5
265
100
AcDbEntity
  8
LAY-2
  6
CONTINUOUS
 62
     3
100
AcDbLine
 10
58.68258
 20
147.769002
 30
0.0
 11
56.68258
 21
147.769002
 31
0.0
  0
LINE
  5
266
100
AcDbEntity
  8
LAY-2
  6
CONTINUOUS
 62
     3
100
AcDbLine
 10
58.68258
 20
144.630998
 30
0.0
 11
56.68258
 21
144.630998
 31
0.0
  0
LINE
  5
267
100
AcDbEntity
  8
LAY-2
  6
CONTINUOUS
 62
     3
100
AcDbLine
 10
58.68258
 20
143.981096
 30
0.0
 11
56.68258
 21
143.981096
 31
0.0
  0
LINE
  5
268
100
AcDbEntity
  8
LAY-2
  6
CONTINUOUS
 62
     3
100
AcDbLine
 10
58.68258
 20
146.2
 30
0.0
 11
56.68258
 21
146.2
 31
0.0
  0
LINE
  5
269
100
AcDbEntity
  8
LAY-2
  6
CONTINUOUS
 62
     3
100
AcDbLine
 10
43.28258
 20
148.2
 30
0.0
 11
45.462429
 21
148.2
 31
0.0
  0
ARC
  5
26A
100
AcDbEntity
  8
LAY-2
  6
CONTINUOUS
 62
     3
100
AcDbCircle
 10
45.462429
 20
151.2
 30
0.0
 40
3.0
100
AcDbArc
 50
270.0
 51
310.093008
  0
ARC
  5
26B
100
AcDbEntity
  8
LAY-2
  6
CONTINUOUS
 62
     3
100
AcDbCircle
 10
51.902732
 20
151.2
 30
0.0
 40
3.0
100
AcDbArc
 50
229.906992
 51
270.0
  0
LINE
  5
26C
100
AcDbEntity
  8
LAY-2
  6
CONTINUOUS
 62
     3
100
AcDbLine
 10
54.08258
 20
148.2
 30
0.0
 11
51.902732
 21
148.2
 31
0.0
  0
ARC
  5
26D
100
AcDbEntity
  8
LAY-2
  6
CONTINUOUS
 62
     3
100
AcDbCircle
 10
48.68258
 20
147.375
 30
0.0
 40
2.0
100
AcDbArc
 50
49.906992
 51
130.093008
  0
LINE
  5
26E
100
AcDbEntity
  8
LAY-2
  6
CONTINUOUS
 62
     3
100
AcDbLine
 10
43.28258
 20
144.2
 30
0.0
 11
45.462429
 21
144.2
 31
0.0
  0
ARC
  5
26F
100
AcDbEntity
  8
LAY-2
  6
CONTINUOUS
 62
     3
100
AcDbCircle
 10
45.462429
 20
141.2
 30
0.0
 40
3.0
100
AcDbArc
 50
49.906992
 51
90.0
  0
ARC
  5
270
100
AcDbEntity
  8
LAY-2
  6
CONTINUOUS
 62
     3
100
AcDbCircle
 10
51.902732
 20
141.2
 30
0.0
 40
3.0
100
AcDbArc
 50
90.0
 51
130.093008
  0
LINE
  5
271
100
AcDbEntity
  8
LAY-2
  6
CONTINUOUS
 62
     3
100
AcDbLine
 10
54.08258
 20
144.2
 30
0.0
 11
51.902732
 21
144.2
 31
0.0
  0
ARC
  5
272
100
AcDbEntity
  8
LAY-2
  6
CONTINUOUS
 62
     3
100
AcDbCircle
 10
48.68258
 20
145.025
 30
0.0
 40
2.0
100
AcDbArc
 50
229.906992
 51
310.093008
  0
LINE
  5
273
100
AcDbEntity
  8
LAY-2
  6
CONTINUOUS
 62
     3
100
AcDbLine
 10
177.386913
 20
148.9
 30
0.0
 11
177.386913
 21
146.2
 31
0.0
  0
LINE
  5
274
100
AcDbEntity
  8
LAY-2
  6
CONTINUOUS
 62
     3
100
AcDbLine
 10
177.386913
 20
152.2
 30
0.0
 11
177.386913
 21
148.9
 31
0.0
  0
LINE
  5
275
100
AcDbEntity
  8
LAY-2
  6
CONTINUOUS
 62
     3
100
AcDbLine
 10
177.386913
 20
146.2
 30
0.0
 11
177.386913
 21
141.45
 31
0.0
  0
LINE
  5
276
100
AcDbEntity
  8
LAY-2
  6
CONTINUOUS
 62
     3
100
AcDbLine
 10
175.686913
 20
152.2
 30
0.0
 11
175.686913
 21
141.45
 31
0.0
  0
LINE
  5
277
100
AcDbEntity
  8
LAY-2
  6
CONTINUOUS
 62
     3
100
AcDbLine
 10
175.886913
 20
152.2
 30
0.0
 11
175.886913
 21
141.45
 31
0.0
  0
LINE
  5
278
100
AcDbEntity
  8
LAY-2
  6
CONTINUOUS
 62
     3
100
AcDbLine
 10
174.486913
 20
152.2
 30
0.0
 11
174.486913
 21
141.45
 31
0.0
  0
LINE
  5
279
100
AcDbEntity
  8
LAY-2
  6
CONTINUOUS
 62
     3
100
AcDbLine
 10
172.186913
 20
148.905981
 30
0.0
 11
172.186913
 21
143.494019
 31
0.0
  0
LINE
  5
27A
100
AcDbEntity
  8
LAY-2
  6
CONTINUOUS
 62
     3
100
AcDbLine
 10
174.486913
 20
152.2
 30
0.0
 11
175.686913
 21
152.2
 31
0.0
  0
LINE
  5
27B
100
AcDbEntity
  8
LAY-2
  6
CONTINUOUS
 62
     3
100
AcDbLine
 10
175.886913
 20
152.2
 30
0.0
 11
177.386913
 21
152.2
 31
0.0
  0
LINE
  5
27C
100
AcDbEntity
  8
LAY-2
  6
CONTINUOUS
 62
     3
100
AcDbLine
 10
174.486913
 20
150.785526
 30
0.0
 11
175.686913
 21
150.785526
 31
0.0
  0
LINE
  5
27D
100
AcDbEntity
  8
LAY-2
  6
CONTINUOUS
 62
     3
100
AcDbLine
 10
175.886913
 20
150.785526
 30
0.0
 11
177.386913
 21
150.785526
 31
0.0
  0
LINE
  5
27E
100
AcDbEntity
  8
LAY-2
  6
CONTINUOUS
 62
     3
100
AcDbLine
 10
174.486913
 20
144.980357
 30
0.0
 11
175.686913
 21
144.980357
 31
0.0
  0
LINE
  5
27F
100
AcDbEntity
  8
LAY-2
  6
CONTINUOUS
 62
     3
100
AcDbLine
 10
175.886913
 20
144.980357
 30
0.0
 11
177.386913
 21
144.980357
 31
0.0
  0
LINE
  5
280
100
AcDbEntity
  8
LAY-2
  6
CONTINUOUS
 62
     3
100
AcDbLine
 10
174.486913
 20
142.575
 30
0.0
 11
175.686913
 21
142.575
 31
0.0
  0
LINE
  5
281
100
AcDbEntity
  8
LAY-2
  6
CONTINUOUS
 62
     3
100
AcDbLine
 10
175.886913
 20
142.575
 30
0.0
 11
177.386913
 21
142.575
 31
0.0
  0
LINE
  5
282
100
AcDbEntity
  8
LAY-2
  6
CONTINUOUS
 62
     3
100
AcDbLine
 10
174.486913
 20
141.45
 30
0.0
 11
175.686913
 21
141.45
 31
0.0
  0
LINE
  5
283
100
AcDbEntity
  8
LAY-2
  6
CONTINUOUS
 62
     3
100
AcDbLine
 10
175.886913
 20
141.45
 30
0.0
 11
177.386913
 21
141.45
 31
0.0
  0
LINE
  5
284
100
AcDbEntity
  8
LAY-2
  6
CONTINUOUS
 62
     3
100
AcDbLine
 10
175.886913
 20
150.2
 30
0.0
 11
175.686913
 21
150.2
 31
0.0
  0
LINE
  5
285
100
AcDbEntity
  8
LAY-2
  6
CONTINUOUS
 62
     3
100
AcDbLine
 10
175.886913
 20
142.2
 30
0.0
 11
175.686913
 21
142.2
 31
0.0
  0
LINE
  5
286
100
AcDbEntity
  8
LAY-2
  6
CONTINUOUS
 62
     3
100
AcDbLine
 10
172.186913
 20
146.2
 30
0.0
 11
174.486913
 21
146.2
 31
0.0
  0
LINE
  5
287
100
AcDbEntity
  8
LAY-2
  6
CONTINUOUS
 62
     3
100
AcDbLine
 10
172.186913
 20
143.494019
 30
0.0
 11
174.486913
 21
143.494019
 31
0.0
  0
LINE
  5
288
100
AcDbEntity
  8
LAY-2
  6
CONTINUOUS
 62
     3
100
AcDbLine
 10
172.186913
 20
144.286583
 30
0.0
 11
174.486913
 21
144.286583
 31
0.0
  0
LINE
  5
289
100
AcDbEntity
  8
LAY-2
  6
CONTINUOUS
 62
     3
100
AcDbLine
 10
172.186913
 20
148.113417
 30
0.0
 11
174.486913
 21
148.113417
 31
0.0
  0
LINE
  5
28A
100
AcDbEntity
  8
LAY-2
  6
CONTINUOUS
 62
     3
100
AcDbLine
 10
172.186913
 20
148.905981
 30
0.0
 11
174.486913
 21
148.905981
 31
0.0
  0
LINE
  5
28B
100
AcDbEntity
  8
LAY-2
  6
CONTINUOUS
 62
     3
100
AcDbLine
 10
188.986913
 20
148.9
 30
0.0
 11
188.986913
 21
146.2
 31
0.0
  0
LINE
  5
28C
100
AcDbEntity
  8
LAY-2
  6
CONTINUOUS
 62
     3
100
AcDbLine
 10
188.986913
 20
152.2
 30
0.0
 11
188.986913
 21
148.9
 31
0.0
  0
LINE
  5
28D
100
AcDbEntity
  8
LAY-2
  6
CONTINUOUS
 62
     3
100
AcDbLine
 10
188.986913
 20
146.2
 30
0.0
 11
188.986913
 21
141.45
 31
0.0
  0
LINE
  5
28E
100
AcDbEntity
  8
LAY-2
  6
CONTINUOUS
 62
     3
100
AcDbLine
 10
190.686913
 20
152.2
 30
0.0
 11
190.686913
 21
141.45
 31
0.0
  0
LINE
  5
28F
100
AcDbEntity
  8
LAY-2
  6
CONTINUOUS
 62
     3
100
AcDbLine
 10
190.486913
 20
152.2
 30
0.0
 11
190.486913
 21
141.45
 31
0.0
  0
LINE
  5
290
100
AcDbEntity
  8
LAY-2
  6
CONTINUOUS
 62
     3
100
AcDbLine
 10
191.886913
 20
152.2
 30
0.0
 11
191.886913
 21
141.45
 31
0.0
  0
LINE
  5
291
100
AcDbEntity
  8
LAY-2
  6
CONTINUOUS
 62
     3
100
AcDbLine
 10
194.186913
 20
148.905981
 30
0.0
 11
194.186913
 21
143.494019
 31
0.0
  0
LINE
  5
292
100
AcDbEntity
  8
LAY-2
  6
CONTINUOUS
 62
     3
100
AcDbLine
 10
191.886913
 20
152.2
 30
0.0
 11
190.686913
 21
152.2
 31
0.0
  0
LINE
  5
293
100
AcDbEntity
  8
LAY-2
  6
CONTINUOUS
 62
     3
100
AcDbLine
 10
190.486913
 20
152.2
 30
0.0
 11
188.986913
 21
152.2
 31
0.0
  0
LINE
  5
294
100
AcDbEntity
  8
LAY-2
  6
CONTINUOUS
 62
     3
100
AcDbLine
 10
191.886913
 20
150.785526
 30
0.0
 11
190.686913
 21
150.785526
 31
0.0
  0
LINE
  5
295
100
AcDbEntity
  8
LAY-2
  6
CONTINUOUS
 62
     3
100
AcDbLine
 10
190.486913
 20
150.785526
 30
0.0
 11
188.986913
 21
150.785526
 31
0.0
  0
LINE
  5
296
100
AcDbEntity
  8
LAY-2
  6
CONTINUOUS
 62
     3
100
AcDbLine
 10
191.886913
 20
144.980357
 30
0.0
 11
190.686913
 21
144.980357
 31
0.0
  0
LINE
  5
297
100
AcDbEntity
  8
LAY-2
  6
CONTINUOUS
 62
     3
100
AcDbLine
 10
190.486913
 20
144.980357
 30
0.0
 11
188.986913
 21
144.980357
 31
0.0
  0
LINE
  5
298
100
AcDbEntity
  8
LAY-2
  6
CONTINUOUS
 62
     3
100
AcDbLine
 10
191.886913
 20
142.575
 30
0.0
 11
190.686913
 21
142.575
 31
0.0
  0
LINE
  5
299
100
AcDbEntity
  8
LAY-2
  6
CONTINUOUS
 62
     3
100
AcDbLine
 10
190.486913
 20
142.575
 30
0.0
 11
188.986913
 21
142.575
 31
0.0
  0
LINE
  5
29A
100
AcDbEntity
  8
LAY-2
  6
CONTINUOUS
 62
     3
100
AcDbLine
 10
191.886913
 20
141.45
 30
0.0
 11
190.686913
 21
141.45
 31
0.0
  0
LINE
  5
29B
100
AcDbEntity
  8
LAY-2
  6
CONTINUOUS
 62
     3
100
AcDbLine
 10
190.486913
 20
141.45
 30
0.0
 11
188.986913
 21
141.45
 31
0.0
  0
LINE
  5
29C
100
AcDbEntity
  8
LAY-2
  6
CONTINUOUS
 62
     3
100
AcDbLine
 10
190.486913
 20
150.2
 30
0.0
 11
190.686913
 21
150.2
 31
0.0
  0
LINE
  5
29D
100
AcDbEntity
  8
LAY-2
  6
CONTINUOUS
 62
     3
100
AcDbLine
 10
190.486913
 20
142.2
 30
0.0
 11
190.686913
 21
142.2
 31
0.0
  0
LINE
  5
29E
100
AcDbEntity
  8
LAY-2
  6
CONTINUOUS
 62
     3
100
AcDbLine
 10
194.186913
 20
146.2
 30
0.0
 11
191.886913
 21
146.2
 31
0.0
  0
LINE
  5
29F
100
AcDbEntity
  8
LAY-2
  6
CONTINUOUS
 62
     3
100
AcDbLine
 10
194.186913
 20
143.494019
 30
0.0
 11
191.886913
 21
143.494019
 31
0.0
  0
LINE
  5
2A0
100
AcDbEntity
  8
LAY-2
  6
CONTINUOUS
 62
     3
100
AcDbLine
 10
194.186913
 20
144.286583
 30
0.0
 11
191.886913
 21
144.286583
 31
0.0
  0
LINE
  5
2A1
100
AcDbEntity
  8
LAY-2
  6
CONTINUOUS
 62
     3
100
AcDbLine
 10
194.186913
 20
148.113417
 30
0.0
 11
191.886913
 21
148.113417
 31
0.0
  0
LINE
  5
2A2
100
AcDbEntity
  8
LAY-2
  6
CONTINUOUS
 62
     3
100
AcDbLine
 10
194.186913
 20
148.905981
 30
0.0
 11
191.886913
 21
148.905981
 31
0.0
  0
LINE
  5
2A3
100
AcDbEntity
  8
LAY-2
  6
EXLTYPE3
 62
     1
100
AcDbLine
 10
215.291247
 20
146.2
 30
0.0
 11
241.27816
 21
146.2
 31
0.0
  0
ARC
  5
2A4
100
AcDbEntity
  8
LAY-2
  6
CONTINUOUS
 62
     3
100
AcDbCircle
 10
228.397248
 20
148.218187
 30
0.0
 40
5.918223
100
AcDbArc
 50
300.244006
 51
300.386958
  0
LINE
  5
2A5
100
AcDbEntity
  8
LAY-2
  6
CONTINUOUS
 62
     3
100
AcDbLine
 10
222.67816
 20
148.9
 30
0.0
 11
224.712441
 21
148.9
 31
0.0
  0
ARC
  5
2A6
100
AcDbEntity
  8
LAY-2
  6
CONTINUOUS
 62
     3
100
AcDbCircle
 10
224.712441
 20
152.9
 30
0.0
 40
4.0
100
AcDbArc
 50
270.0
 51
307.658462
  0
LINE
  5
2A7
100
AcDbEntity
  8
LAY-2
  6
CONTINUOUS
 62
     3
100
AcDbLine
 10
234.07816
 20
148.9
 30
0.0
 11
232.04388
 21
148.9
 31
0.0
  0
ARC
  5
2A8
100
AcDbEntity
  8
LAY-2
  6
CONTINUOUS
 62
     3
100
AcDbCircle
 10
228.37816
 20
148.15
 30
0.0
 40
2.0
100
AcDbArc
 50
52.341538
 51
127.658462
  0
ARC
  5
2A9
100
AcDbEntity
  8
LAY-2
  6
CONTINUOUS
 62
     3
100
AcDbCircle
 10
232.04388
 20
152.9
 30
0.0
 40
4.0
100
AcDbArc
 50
232.341538
 51
270.0
  0
LINE
  5
2AA
100
AcDbEntity
  8
LAY-2
  6
CONTINUOUS
 62
     3
100
AcDbLine
 10
222.67816
 20
143.5
 30
0.0
 11
224.712441
 21
143.5
 31
0.0
  0
ARC
  5
2AB
100
AcDbEntity
  8
LAY-2
  6
CONTINUOUS
 62
     3
100
AcDbCircle
 10
224.712441
 20
139.5
 30
0.0
 40
4.0
100
AcDbArc
 50
52.341538
 51
90.0
  0
LINE
  5
2AC
100
AcDbEntity
  8
LAY-2
  6
CONTINUOUS
 62
     3
100
AcDbLine
 10
234.07816
 20
143.5
 30
0.0
 11
232.04388
 21
143.5
 31
0.0
  0
ARC
  5
2AD
100
AcDbEntity
  8
LAY-2
  6
CONTINUOUS
 62
     3
100
AcDbCircle
 10
228.37816
 20
144.25
 30
0.0
 40
2.0
100
AcDbArc
 50
232.341538
 51
307.658462
  0
ARC
  5
2AE
100
AcDbEntity
  8
LAY-2
  6
CONTINUOUS
 62
     3
100
AcDbCircle
 10
232.04388
 20
139.5
 30
0.0
 40
4.0
100
AcDbArc
 50
90.0
 51
127.658462
  0
LINE
  5
2AF
100
AcDbEntity
  8
LAY-2
  6
CONTINUOUS
 62
     3
100
AcDbLine
 10
222.57816
 20
148.9
 30
0.0
 11
222.57816
 21
146.2
 31
0.0
  0
LINE
  5
2B0
100
AcDbEntity
  8
LAY-2
  6
CONTINUOUS
 62
     3
100
AcDbLine
 10
222.57816
 20
152.2
 30
0.0
 11
222.57816
 21
148.9
 31
0.0
  0
LINE
  5
2B1
100
AcDbEntity
  8
LAY-2
  6
CONTINUOUS
 62
     3
100
AcDbLine
 10
222.57816
 20
146.2
 30
0.0
 11
222.57816
 21
141.45
 31
0.0
  0
LINE
  5
2B2
100
AcDbEntity
  8
LAY-2
  6
CONTINUOUS
 62
     3
100
AcDbLine
 10
220.87816
 20
152.2
 30
0.0
 11
220.87816
 21
141.45
 31
0.0
  0
LINE
  5
2B3
100
AcDbEntity
  8
LAY-2
  6
CONTINUOUS
 62
     3
100
AcDbLine
 10
221.07816
 20
152.2
 30
0.0
 11
221.07816
 21
141.45
 31
0.0
  0
LINE
  5
2B4
100
AcDbEntity
  8
LAY-2
  6
CONTINUOUS
 62
     3
100
AcDbLine
 10
219.67816
 20
152.2
 30
0.0
 11
219.67816
 21
141.45
 31
0.0
  0
LINE
  5
2B5
100
AcDbEntity
  8
LAY-2
  6
CONTINUOUS
 62
     3
100
AcDbLine
 10
217.37816
 20
148.905981
 30
0.0
 11
217.37816
 21
143.494019
 31
0.0
  0
LINE
  5
2B6
100
AcDbEntity
  8
LAY-2
  6
CONTINUOUS
 62
     3
100
AcDbLine
 10
219.67816
 20
152.2
 30
0.0
 11
220.87816
 21
152.2
 31
0.0
  0
LINE
  5
2B7
100
AcDbEntity
  8
LAY-2
  6
CONTINUOUS
 62
     3
100
AcDbLine
 10
221.07816
 20
152.2
 30
0.0
 11
222.57816
 21
152.2
 31
0.0
  0
LINE
  5
2B8
100
AcDbEntity
  8
LAY-2
  6
CONTINUOUS
 62
     3
100
AcDbLine
 10
219.67816
 20
150.785526
 30
0.0
 11
220.87816
 21
150.785526
 31
0.0
  0
LINE
  5
2B9
100
AcDbEntity
  8
LAY-2
  6
CONTINUOUS
 62
     3
100
AcDbLine
 10
221.07816
 20
150.785526
 30
0.0
 11
222.57816
 21
150.785526
 31
0.0
  0
LINE
  5
2BA
100
AcDbEntity
  8
LAY-2
  6
CONTINUOUS
 62
     3
100
AcDbLine
 10
219.67816
 20
144.980357
 30
0.0
 11
220.87816
 21
144.980357
 31
0.0
  0
LINE
  5
2BB
100
AcDbEntity
  8
LAY-2
  6
CONTINUOUS
 62
     3
100
AcDbLine
 10
221.07816
 20
144.980357
 30
0.0
 11
222.57816
 21
144.980357
 31
0.0
  0
LINE
  5
2BC
100
AcDbEntity
  8
LAY-2
  6
CONTINUOUS
 62
     3
100
AcDbLine
 10
219.67816
 20
142.575
 30
0.0
 11
220.87816
 21
142.575
 31
0.0
  0
LINE
  5
2BD
100
AcDbEntity
  8
LAY-2
  6
CONTINUOUS
 62
     3
100
AcDbLine
 10
221.07816
 20
142.575
 30
0.0
 11
222.57816
 21
142.575
 31
0.0
  0
LINE
  5
2BE
100
AcDbEntity
  8
LAY-2
  6
CONTINUOUS
 62
     3
100
AcDbLine
 10
219.67816
 20
141.45
 30
0.0
 11
220.87816
 21
141.45
 31
0.0
  0
LINE
  5
2BF
100
AcDbEntity
  8
LAY-2
  6
CONTINUOUS
 62
     3
100
AcDbLine
 10
221.07816
 20
141.45
 30
0.0
 11
222.57816
 21
141.45
 31
0.0
  0
LINE
  5
2C0
100
AcDbEntity
  8
LAY-2
  6
CONTINUOUS
 62
     3
100
AcDbLine
 10
221.07816
 20
150.2
 30
0.0
 11
220.87816
 21
150.2
 31
0.0
  0
LINE
  5
2C1
100
AcDbEntity
  8
LAY-2
  6
CONTINUOUS
 62
     3
100
AcDbLine
 10
221.07816
 20
142.2
 30
0.0
 11
220.87816
 21
142.2
 31
0.0
  0
LINE
  5
2C2
100
AcDbEntity
  8
LAY-2
  6
CONTINUOUS
 62
     3
100
AcDbLine
 10
217.37816
 20
146.2
 30
0.0
 11
219.67816
 21
146.2
 31
0.0
  0
LINE
  5
2C3
100
AcDbEntity
  8
LAY-2
  6
CONTINUOUS
 62
     3
100
AcDbLine
 10
217.37816
 20
143.494019
 30
0.0
 11
219.67816
 21
143.494019
 31
0.0
  0
LINE
  5
2C4
100
AcDbEntity
  8
LAY-2
  6
CONTINUOUS
 62
     3
100
AcDbLine
 10
217.37816
 20
144.286583
 30
0.0
 11
219.67816
 21
144.286583
 31
0.0
  0
LINE
  5
2C5
100
AcDbEntity
  8
LAY-2
  6
CONTINUOUS
 62
     3
100
AcDbLine
 10
217.37816
 20
148.113417
 30
0.0
 11
219.67816
 21
148.113417
 31
0.0
  0
LINE
  5
2C6
100
AcDbEntity
  8
LAY-2
  6
CONTINUOUS
 62
     3
100
AcDbLine
 10
217.37816
 20
148.905981
 30
0.0
 11
219.67816
 21
148.905981
 31
0.0
  0
LINE
  5
2C7
100
AcDbEntity
  8
LAY-2
  6
CONTINUOUS
 62
     3
100
AcDbLine
 10
234.17816
 20
148.9
 30
0.0
 11
234.17816
 21
146.2
 31
0.0
  0
LINE
  5
2C8
100
AcDbEntity
  8
LAY-2
  6
CONTINUOUS
 62
     3
100
AcDbLine
 10
234.17816
 20
152.2
 30
0.0
 11
234.17816
 21
148.9
 31
0.0
  0
LINE
  5
2C9
100
AcDbEntity
  8
LAY-2
  6
CONTINUOUS
 62
     3
100
AcDbLine
 10
234.17816
 20
146.2
 30
0.0
 11
234.17816
 21
141.45
 31
0.0
  0
LINE
  5
2CA
100
AcDbEntity
  8
LAY-2
  6
CONTINUOUS
 62
     3
100
AcDbLine
 10
235.87816
 20
152.2
 30
0.0
 11
235.87816
 21
141.45
 31
0.0
  0
LINE
  5
2CB
100
AcDbEntity
  8
LAY-2
  6
CONTINUOUS
 62
     3
100
AcDbLine
 10
235.67816
 20
152.2
 30
0.0
 11
235.67816
 21
141.45
 31
0.0
  0
LINE
  5
2CC
100
AcDbEntity
  8
LAY-2
  6
CONTINUOUS
 62
     3
100
AcDbLine
 10
237.07816
 20
152.2
 30
0.0
 11
237.07816
 21
141.45
 31
0.0
  0
LINE
  5
2CD
100
AcDbEntity
  8
LAY-2
  6
CONTINUOUS
 62
     3
100
AcDbLine
 10
239.37816
 20
148.905981
 30
0.0
 11
239.37816
 21
143.494019
 31
0.0
  0
LINE
  5
2CE
100
AcDbEntity
  8
LAY-2
  6
CONTINUOUS
 62
     3
100
AcDbLine
 10
237.07816
 20
152.2
 30
0.0
 11
235.87816
 21
152.2
 31
0.0
  0
LINE
  5
2CF
100
AcDbEntity
  8
LAY-2
  6
CONTINUOUS
 62
     3
100
AcDbLine
 10
235.67816
 20
152.2
 30
0.0
 11
234.17816
 21
152.2
 31
0.0
  0
LINE
  5
2D0
100
AcDbEntity
  8
LAY-2
  6
CONTINUOUS
 62
     3
100
AcDbLine
 10
237.07816
 20
150.785526
 30
0.0
 11
235.87816
 21
150.785526
 31
0.0
  0
LINE
  5
2D1
100
AcDbEntity
  8
LAY-2
  6
CONTINUOUS
 62
     3
100
AcDbLine
 10
235.67816
 20
150.785526
 30
0.0
 11
234.17816
 21
150.785526
 31
0.0
  0
LINE
  5
2D2
100
AcDbEntity
  8
LAY-2
  6
CONTINUOUS
 62
     3
100
AcDbLine
 10
237.07816
 20
144.980357
 30
0.0
 11
235.87816
 21
144.980357
 31
0.0
  0
LINE
  5
2D3
100
AcDbEntity
  8
LAY-2
  6
CONTINUOUS
 62
     3
100
AcDbLine
 10
235.67816
 20
144.980357
 30
0.0
 11
234.17816
 21
144.980357
 31
0.0
  0
LINE
  5
2D4
100
AcDbEntity
  8
LAY-2
  6
CONTINUOUS
 62
     3
100
AcDbLine
 10
237.07816
 20
142.575
 30
0.0
 11
235.87816
 21
142.575
 31
0.0
  0
LINE
  5
2D5
100
AcDbEntity
  8
LAY-2
  6
CONTINUOUS
 62
     3
100
AcDbLine
 10
235.67816
 20
142.575
 30
0.0
 11
234.17816
 21
142.575
 31
0.0
  0
LINE
  5
2D6
100
AcDbEntity
  8
LAY-2
  6
CONTINUOUS
 62
     3
100
AcDbLine
 10
237.07816
 20
141.45
 30
0.0
 11
235.87816
 21
141.45
 31
0.0
  0
LINE
  5
2D7
100
AcDbEntity
  8
LAY-2
  6
CONTINUOUS
 62
     3
100
AcDbLine
 10
235.67816
 20
141.45
 30
0.0
 11
234.17816
 21
141.45
 31
0.0
  0
LINE
  5
2D8
100
AcDbEntity
  8
LAY-2
  6
CONTINUOUS
 62
     3
100
AcDbLine
 10
235.67816
 20
150.2
 30
0.0
 11
235.87816
 21
150.2
 31
0.0
  0
LINE
  5
2D9
100
AcDbEntity
  8
LAY-2
  6
CONTINUOUS
 62
     3
100
AcDbLine
 10
235.67816
 20
142.2
 30
0.0
 11
235.87816
 21
142.2
 31
0.0
  0
LINE
  5
2DA
100
AcDbEntity
  8
LAY-2
  6
CONTINUOUS
 62
     3
100
AcDbLine
 10
239.37816
 20
146.2
 30
0.0
 11
237.07816
 21
146.2
 31
0.0
  0
LINE
  5
2DB
100
AcDbEntity
  8
LAY-2
  6
CONTINUOUS
 62
     3
100
AcDbLine
 10
239.37816
 20
143.494019
 30
0.0
 11
237.07816
 21
143.494019
 31
0.0
  0
LINE
  5
2DC
100
AcDbEntity
  8
LAY-2
  6
CONTINUOUS
 62
     3
100
AcDbLine
 10
239.37816
 20
144.286583
 30
0.0
 11
237.07816
 21
144.286583
 31
0.0
  0
LINE
  5
2DD
100
AcDbEntity
  8
LAY-2
  6
CONTINUOUS
 62
     3
100
AcDbLine
 10
239.37816
 20
148.113417
 30
0.0
 11
237.07816
 21
148.113417
 31
0.0
  0
LINE
  5
2DE
100
AcDbEntity
  8
LAY-2
  6
CONTINUOUS
 62
     3
100
AcDbLine
 10
239.37816
 20
148.905981
 30
0.0
 11
237.07816
 21
148.905981
 31
0.0
  0
LINE
  5
2DF
100
AcDbEntity
  8
LAY-2
  6
CONTINUOUS
 62
     3
100
AcDbLine
 10
267.691247
 20
149.4
 30
0.0
 11
269.564042
 21
149.4
 31
0.0
  0
ARC
  5
2E0
100
AcDbEntity
  8
LAY-2
  6
CONTINUOUS
 62
     3
100
AcDbCircle
 10
269.564042
 20
152.9
 30
0.0
 40
3.5
100
AcDbArc
 50
270.0
 51
314.095429
  0
LINE
  5
2E1
100
AcDbEntity
  8
LAY-2
  6
CONTINUOUS
 62
     3
100
AcDbLine
 10
279.091247
 20
149.4
 30
0.0
 11
277.218452
 21
149.4
 31
0.0
  0
ARC
  5
2E2
100
AcDbEntity
  8
LAY-2
  6
CONTINUOUS
 62
     3
100
AcDbCircle
 10
273.391247
 20
148.95
 30
0.0
 40
2.0
100
AcDbArc
 50
45.904571
 51
134.095429
  0
ARC
  5
2E3
100
AcDbEntity
  8
LAY-2
  6
CONTINUOUS
 62
     3
100
AcDbCircle
 10
277.218452
 20
152.9
 30
0.0
 40
3.5
100
AcDbArc
 50
225.904571
 51
270.0
  0
LINE
  5
2E4
100
AcDbEntity
  8
LAY-2
  6
CONTINUOUS
 62
     3
100
AcDbLine
 10
267.691247
 20
143.0
 30
0.0
 11
269.564042
 21
143.0
 31
0.0
  0
ARC
  5
2E5
100
AcDbEntity
  8
LAY-2
  6
CONTINUOUS
 62
     3
100
AcDbCircle
 10
269.564042
 20
139.5
 30
0.0
 40
3.5
100
AcDbArc
 50
45.904571
 51
90.0
  0
LINE
  5
2E6
100
AcDbEntity
  8
LAY-2
  6
CONTINUOUS
 62
     3
100
AcDbLine
 10
279.091247
 20
143.0
 30
0.0
 11
277.218452
 21
143.0
 31
0.0
  0
ARC
  5
2E7
100
AcDbEntity
  8
LAY-2
  6
CONTINUOUS
 62
     3
100
AcDbCircle
 10
273.391247
 20
143.45
 30
0.0
 40
2.0
100
AcDbArc
 50
225.904571
 51
314.095429
  0
ARC
  5
2E8
100
AcDbEntity
  8
LAY-2
  6
CONTINUOUS
 62
     3
100
AcDbCircle
 10
277.218452
 20
139.5
 30
0.0
 40
3.5
100
AcDbArc
 50
90.0
 51
134.095429
  0
LINE
  5
2E9
100
AcDbEntity
  8
LAY-2
  6
CONTINUOUS
 62
     3
100
AcDbLine
 10
267.691247
 20
149.2
 30
0.0
 11
267.691247
 21
143.2
 31
0.0
  0
LINE
  5
2EA
100
AcDbEntity
  8
LAY-2
  6
CONTINUOUS
 62
     3
100
AcDbLine
 10
267.691247
 20
146.2
 30
0.0
 11
267.691247
 21
152.95
 31
0.0
  0
LINE
  5
2EB
100
AcDbEntity
  8
LAY-2
  6
CONTINUOUS
 62
     3
100
AcDbLine
 10
267.691247
 20
140.7
 30
0.0
 11
267.691247
 21
143.5
 31
0.0
  0
LINE
  5
2EC
100
AcDbEntity
  8
LAY-2
  6
CONTINUOUS
 62
     3
100
AcDbLine
 10
264.491247
 20
140.7
 30
0.0
 11
264.491247
 21
152.95
 31
0.0
  0
LINE
  5
2ED
100
AcDbEntity
  8
LAY-2
  6
CONTINUOUS
 62
     3
100
AcDbLine
 10
265.891247
 20
140.7
 30
0.0
 11
265.891247
 21
152.95
 31
0.0
  0
LINE
  5
2EE
100
AcDbEntity
  8
LAY-2
  6
CONTINUOUS
 62
     3
100
AcDbLine
 10
266.091247
 20
140.7
 30
0.0
 11
266.091247
 21
152.95
 31
0.0
  0
LINE
  5
2EF
100
AcDbEntity
  8
LAY-2
  6
CONTINUOUS
 62
     3
100
AcDbLine
 10
261.891247
 20
142.465747
 30
0.0
 11
261.891247
 21
149.934253
 31
0.0
  0
LINE
  5
2F0
100
AcDbEntity
  8
LAY-2
  6
CONTINUOUS
 62
     3
100
AcDbLine
 10
266.091247
 20
152.95
 30
0.0
 11
267.691247
 21
152.95
 31
0.0
  0
LINE
  5
2F1
100
AcDbEntity
  8
LAY-2
  6
CONTINUOUS
 62
     3
100
AcDbLine
 10
264.491247
 20
152.95
 30
0.0
 11
265.891247
 21
152.95
 31
0.0
  0
LINE
  5
2F2
100
AcDbEntity
  8
LAY-2
  6
CONTINUOUS
 62
     3
100
AcDbLine
 10
264.491247
 20
144.596542
 30
0.0
 11
265.891247
 21
144.596542
 31
0.0
  0
LINE
  5
2F3
100
AcDbEntity
  8
LAY-2
  6
CONTINUOUS
 62
     3
100
AcDbLine
 10
266.091247
 20
144.596542
 30
0.0
 11
267.691247
 21
144.596542
 31
0.0
  0
LINE
  5
2F4
100
AcDbEntity
  8
LAY-2
  6
CONTINUOUS
 62
     3
100
AcDbLine
 10
264.491247
 20
142.2
 30
0.0
 11
265.891247
 21
142.2
 31
0.0
  0
LINE
  5
2F5
100
AcDbEntity
  8
LAY-2
  6
CONTINUOUS
 62
     3
100
AcDbLine
 10
266.091247
 20
142.2
 30
0.0
 11
267.691247
 21
142.2
 31
0.0
  0
LINE
  5
2F6
100
AcDbEntity
  8
LAY-2
  6
CONTINUOUS
 62
     3
100
AcDbLine
 10
264.491247
 20
151.557955
 30
0.0
 11
265.891247
 21
151.557955
 31
0.0
  0
LINE
  5
2F7
100
AcDbEntity
  8
LAY-2
  6
CONTINUOUS
 62
     3
100
AcDbLine
 10
266.091247
 20
151.557955
 30
0.0
 11
267.691247
 21
151.557955
 31
0.0
  0
LINE
  5
2F8
100
AcDbEntity
  8
LAY-2
  6
CONTINUOUS
 62
     3
100
AcDbLine
 10
264.491247
 20
140.7
 30
0.0
 11
265.891247
 21
140.7
 31
0.0
  0
LINE
  5
2F9
100
AcDbEntity
  8
LAY-2
  6
CONTINUOUS
 62
     3
100
AcDbLine
 10
266.091247
 20
140.7
 30
0.0
 11
267.691247
 21
140.7
 31
0.0
  0
LINE
  5
2FA
100
AcDbEntity
  8
LAY-2
  6
CONTINUOUS
 62
     3
100
AcDbLine
 10
261.891247
 20
146.2
 30
0.0
 11
264.491247
 21
146.2
 31
0.0
  0
LINE
  5
2FB
100
AcDbEntity
  8
LAY-2
  6
CONTINUOUS
 62
     3
100
AcDbLine
 10
261.891247
 20
149.934253
 30
0.0
 11
264.491247
 21
149.934253
 31
0.0
  0
LINE
  5
2FC
100
AcDbEntity
  8
LAY-2
  6
CONTINUOUS
 62
     3
100
AcDbLine
 10
261.891247
 20
148.840516
 30
0.0
 11
264.491247
 21
148.840516
 31
0.0
  0
LINE
  5
2FD
100
AcDbEntity
  8
LAY-2
  6
CONTINUOUS
 62
     3
100
AcDbLine
 10
261.891247
 20
143.559484
 30
0.0
 11
264.491247
 21
143.559484
 31
0.0
  0
LINE
  5
2FE
100
AcDbEntity
  8
LAY-2
  6
CONTINUOUS
 62
     3
100
AcDbLine
 10
261.891247
 20
142.465747
 30
0.0
 11
264.491247
 21
142.465747
 31
0.0
  0
LINE
  5
2FF
100
AcDbEntity
  8
LAY-2
  6
CONTINUOUS
 62
     3
100
AcDbLine
 10
265.891247
 20
151.0
 30
0.0
 11
266.091247
 21
151.0
 31
0.0
  0
LINE
  5
300
100
AcDbEntity
  8
LAY-2
  6
CONTINUOUS
 62
     3
100
AcDbLine
 10
265.891247
 20
141.4
 30
0.0
 11
266.091247
 21
141.4
 31
0.0
  0
LINE
  5
301
100
AcDbEntity
  8
LAY-2
  6
CONTINUOUS
 62
     3
100
AcDbLine
 10
279.091247
 20
149.2
 30
0.0
 11
279.091247
 21
143.2
 31
0.0
  0
LINE
  5
302
100
AcDbEntity
  8
LAY-2
  6
EXLTYPE3
 62
     1
100
AcDbLine
 10
279.091247
 20
146.2
 30
0.0
 11
286.004588
 21
146.2
 31
0.0
  0
LINE
  5
303
100
AcDbEntity
  8
LAY-2
  6
CONTINUOUS
 62
     3
100
AcDbLine
 10
279.091247
 20
146.2
 30
0.0
 11
279.091247
 21
152.95
 31
0.0
  0
LINE
  5
304
100
AcDbEntity
  8
LAY-2
  6
CONTINUOUS
 62
     3
100
AcDbLine
 10
279.091247
 20
140.7
 30
0.0
 11
279.091247
 21
143.5
 31
0.0
  0
LINE
  5
305
100
AcDbEntity
  8
LAY-2
  6
CONTINUOUS
 62
     3
100
AcDbLine
 10
282.291247
 20
140.7
 30
0.0
 11
282.291247
 21
152.95
 31
0.0
  0
LINE
  5
306
100
AcDbEntity
  8
LAY-2
  6
CONTINUOUS
 62
     3
100
AcDbLine
 10
280.891247
 20
140.7
 30
0.0
 11
280.891247
 21
152.95
 31
0.0
  0
LINE
  5
307
100
AcDbEntity
  8
LAY-2
  6
CONTINUOUS
 62
     3
100
AcDbLine
 10
280.691247
 20
140.7
 30
0.0
 11
280.691247
 21
152.95
 31
0.0
  0
LINE
  5
308
100
AcDbEntity
  8
LAY-2
  6
CONTINUOUS
 62
     3
100
AcDbLine
 10
284.891247
 20
142.465747
 30
0.0
 11
284.891247
 21
149.934253
 31
0.0
  0
LINE
  5
309
100
AcDbEntity
  8
LAY-2
  6
CONTINUOUS
 62
     3
100
AcDbLine
 10
280.691247
 20
152.95
 30
0.0
 11
279.091247
 21
152.95
 31
0.0
  0
LINE
  5
30A
100
AcDbEntity
  8
LAY-2
  6
CONTINUOUS
 62
     3
100
AcDbLine
 10
282.291247
 20
152.95
 30
0.0
 11
280.891247
 21
152.95
 31
0.0
  0
LINE
  5
30B
100
AcDbEntity
  8
LAY-2
  6
CONTINUOUS
 62
     3
100
AcDbLine
 10
282.291247
 20
144.596542
 30
0.0
 11
280.891247
 21
144.596542
 31
0.0
  0
LINE
  5
30C
100
AcDbEntity
  8
LAY-2
  6
CONTINUOUS
 62
     3
100
AcDbLine
 10
280.691247
 20
144.596542
 30
0.0
 11
279.091247
 21
144.596542
 31
0.0
  0
LINE
  5
30D
100
AcDbEntity
  8
LAY-2
  6
CONTINUOUS
 62
     3
100
AcDbLine
 10
282.291247
 20
142.2
 30
0.0
 11
280.891247
 21
142.2
 31
0.0
  0
LINE
  5
30E
100
AcDbEntity
  8
LAY-2
  6
CONTINUOUS
 62
     3
100
AcDbLine
 10
280.691247
 20
142.2
 30
0.0
 11
279.091247
 21
142.2
 31
0.0
  0
LINE
  5
30F
100
AcDbEntity
  8
LAY-2
  6
CONTINUOUS
 62
     3
100
AcDbLine
 10
282.291247
 20
151.557955
 30
0.0
 11
280.891247
 21
151.557955
 31
0.0
  0
LINE
  5
310
100
AcDbEntity
  8
LAY-2
  6
CONTINUOUS
 62
     3
100
AcDbLine
 10
280.691247
 20
151.557955
 30
0.0
 11
279.091247
 21
151.557955
 31
0.0
  0
LINE
  5
311
100
AcDbEntity
  8
LAY-2
  6
CONTINUOUS
 62
     3
100
AcDbLine
 10
282.291247
 20
140.7
 30
0.0
 11
280.891247
 21
140.7
 31
0.0
  0
LINE
  5
312
100
AcDbEntity
  8
LAY-2
  6
CONTINUOUS
 62
     3
100
AcDbLine
 10
280.691247
 20
140.7
 30
0.0
 11
279.091247
 21
140.7
 31
0.0
  0
LINE
  5
313
100
AcDbEntity
  8
LAY-2
  6
CONTINUOUS
 62
     3
100
AcDbLine
 10
284.891247
 20
146.2
 30
0.0
 11
282.291247
 21
146.2
 31
0.0
  0
LINE
  5
314
100
AcDbEntity
  8
LAY-2
  6
CONTINUOUS
 62
     3
100
AcDbLine
 10
284.891247
 20
149.934253
 30
0.0
 11
282.291247
 21
149.934253
 31
0.0
  0
LINE
  5
315
100
AcDbEntity
  8
LAY-2
  6
CONTINUOUS
 62
     3
100
AcDbLine
 10
284.891247
 20
148.840516
 30
0.0
 11
282.291247
 21
148.840516
 31
0.0
  0
LINE
  5
316
100
AcDbEntity
  8
LAY-2
  6
CONTINUOUS
 62
     3
100
AcDbLine
 10
284.891247
 20
143.559484
 30
0.0
 11
282.291247
 21
143.559484
 31
0.0
  0
LINE
  5
317
100
AcDbEntity
  8
LAY-2
  6
CONTINUOUS
 62
     3
100
AcDbLine
 10
284.891247
 20
142.465747
 30
0.0
 11
282.291247
 21
142.465747
 31
0.0
  0
LINE
  5
318
100
AcDbEntity
  8
LAY-2
  6
CONTINUOUS
 62
     3
100
AcDbLine
 10
280.691247
 20
151.0
 30
0.0
 11
280.891247
 21
151.0
 31
0.0
  0
LINE
  5
319
100
AcDbEntity
  8
LAY-2
  6
CONTINUOUS
 62
     3
100
AcDbLine
 10
280.691247
 20
141.4
 30
0.0
 11
280.891247
 21
141.4
 31
0.0
  0
LINE
  5
31A
100
AcDbEntity
  8
LAY-2
  6
EXLTYPE3
 62
     1
100
AcDbLine
 10
260.491247
 20
146.2
 30
0.0
 11
287.813
 21
146.2
 31
0.0
  0
TEXT
  5
31C
100
AcDbEntity
  8
LAY-2
  6
CONTINUOUS
 62
     1
100
AcDbText
 10
-79.849998
 20
-9.1
 30
0.0
 40
11.25
  1
スケールは１／１０となっています。必要に応じてサイズを１０倍して下さい。
 41
0.966667
  7
EXCADTTF1
 72
     5
 11
442.650002
 21
-9.1
 31
0.0
100
AcDbText
  0
ENDSEC
  0
SECTION
  2
OBJECTS
  0
DICTIONARY
  5
19
100
AcDbDictionary
  3
ACAD_GROUP
350
1A
  3
ACAD_MLINESTYLE
350
1B
  0
DICTIONARY
  5
1A
102
{ACAD_REACTORS
330
19
102
}
100
AcDbDictionary
  0
DICTIONARY
  5
1B
102
{ACAD_REACTORS
330
19
102
}
100
AcDbDictionary
  3
STANDARD
350
1C
  0
MLINESTYLE
  5
1C
102
{ACAD_REACTORS
330
1B
102
}
100
AcDbMlineStyle
  2
Standard
 70
     0
  3

 62
     0
 51
90.0
 52
90.0
 71
     2
 49
0.5
 62
   256
  6
ByLayer
 49
-0.5
 62
   256
  6
ByLayer
  0
ENDSEC
  0
EOF
